Oops, an error
Loading. Please wait.

Bizzare Love Triangle Tab

4,219 views 3 this week
no commentswrite comment
1 2 3 4 5
3 more votes to show rating
add to favorites
launch autoscroll
font size
0
reset
how to read this tab
guitar tuner
Autoscroll
slow
fast
+/-
esc
set tempo
stop
Help us to improve Ultimate-Guitar.com Take our survey!
×
Author
Title: Bizzare Love Triangle
Artist: Stabbing Westward


Tabbed by: Kyril
ge3qz@yahoo.com


Guitar I - Acoustic
Guitar II - Electric
Guitar III - Electric

INTRO (2X)


Guitar I - F, G, Em, F

Guitar II
e----------------------------------|
B----------------------------------|
G----------------------------------|
D----------------------------------|
A----------------------------------|
E--8~~---8/3---3/12----------------|

e--------------------------------|
B--------------------------------|
G--------------------------------|
D--------------------------------|
A--7--10-8-7-8-7-----------------|
E-----------------8~~------------|


Guitar III (0:10)

e------8------------8--|     ----------7---8--------8-----------8-------|
B-----10-----------10--|     --------8---8---------10----------10-------|
G---------------10-----| (2x)    -----10------------------------10------|
D--10--------10--------|     --10--------------10--------10-------------|
A----------------------|     -------------------------------------------|
E----------------------|     -------------------------------------------|

VERSE

GUITAR I

F, G, Em, F

GUITAR III (0:34)

e--------------------------------|
B--------------------------------|
G--------------------------------|
D--10~~--12~~----9~~--10~~-------|
A--------------------------------|
E--------------------------------|


PRE-CHORUS(0:50)

Guitar II

e-------------------------------------------------------------|
B-------------------------------------------------------------|
G--10-------------12-------------9--- ---------10-------------|
D--10-(let ring)--12-(let ring)--9-(let ring)--10-(let ring)--|
A--8--------------10-------------7-------------8--------------|
E-------------------------------------------------------------|


Guitar III

e------8------------8--|     ----------7---8--------8-----------8-------|
B-----10-----------10--|     --------8---8---------10----------10-------|
G---------------10-----| (2x)    -----10------------------------10------|
D--10--------10--------|     --10--------------10--------10-------------|
A----------------------|     -------------------------------------------|
E----------------------|     -------------------------------------------|


CHORUS

Guitar I

F, G, Em, F (2x)

Guitar II

e-------------------------------------------------------------|
B-------------------------------------------------------------|
G--10-------------12-------------9--- ---------10-------------| 2x
D--10-(let ring)--12-(let ring)--9-(let ring)--10-(let ring)--|
A--8--------------10-------------7-------------8--------------|
E-------------------------------------------------------------|

GUITAR III


Guitar II

e-----------------------------------------|
B-----------------------------------------|
G--10---------12--------9--------10-------|     2x
D--x---(x8)---x--(8x)---x--(8x)---x-(x8)--|
A--8----------10--------7---------8-------|
E-----------------------------------------|

1:12

Guitar II
e----------------------------------|
B----------------------------------|
G----------------------------------|
D----------------------------------|
A----------------------------------|
E--8~~---8/3---3/12----------------|

e--------------------------------|
B--------------------------------|
G--------------------------------|
D--------------------------------|
A--7--10-8-7-8-7-----------------|
E-----------------8~~------------|

GUITAR III
e--------------------------------|
B--------------------------------|
G--12--10--9h10-7~~/9-10-12------|
D--------------------------------|
A--------------------------------|
E--------------------------------|

e--------------------------------|
B--------------------------------|
G-14--12--10-9-10----------------|
D--------------------------------|
A--------------------------------|
E--------------------------------|

SOLO FINAL

2:34

e--------------------------------|
B----------17--------20----------|
G-9/14h16------17H19-------------|
D--------------------------------|
A--------------------------------|
E--------------------------------|

e--------------------------------|
B-18--17b-15-----------15--------|
G---------------15h17------------|
D--------------------------------|
A--------------------------------|
E--------------------------------|

e--------------------------------|
B---------17-15-13~~-------------|
G--15h17-------------------------|
D--------------------------------|
A--------------------------------|
E--------------------------------|

e--------------------------------|
B---------17-------20------------|
G--14h16-----17h19---------------|
D--------------------------------|
A--------------------------------|
E--------------------------------|


e--------------------------------|
B--18-17-18-17-15---------15-17b-|
G------------------15h17---------|
D--------------------------------|
A--------------------------------|
E--------------------------------|

e--------------------------------|
B--15-----------------------15---|
G------17--15~~---14-15-17-------|
D--------------------------------|
A--------------------------------|
E--------------------------------|


e--------------------------------|
B--------------------------------|
G--17-15-------------------------|
D--------------------------------|
A--------------------------------|
E--------------------------------|

Every time I think of you
I feel shot right through with a bolt of blue
It's no problem of mine but it's a problem I find
Living a life that I can't leave behind
There's no sense in telling me
The wisdom of a fool won't set you free
But that's the way that it goes
And it's what nobody knows
While every day my confusion grows

Every time I see you falling
I get down on my knees and pray
I'm waiting for that final moment
You'll say the words that I can't say

I feel fine and I feel good
I'm feeling like I never should
Whenever I get this way, I just don't know what to say
Why can't we be ourselves like we were yesterday
I'm not sure what this could mean
I don't think you're what you seem
I do admit to myself
That if I hurt someone else
Then I'll never see just what we're meant to be

Every time I see you falling
I get down on my knees and pray
I'm waiting for that final moment
You'll say the words that I can't say
Every time I see you falling
I get down on my knees and pray
I'm waiting for that final moment
You'll say the words that I can't sayyyyyyy...

Every time I see you falling
I get down on my knees and pray
I'm waiting for that final moment
You'll say the words that I can't say
Every time I see you falling
I get down on my knees and pray
I'm waiting for that final moment
You'll say the words that I can't say...
Suggest correction
Give kudos to tab author, rate the tab!
1 2 3 4 5
comments
print report bad tab
guest
You may want to rate the tab now too:
select rating
Wanna post a correction for this tab? Suggest correction