Oops, an error
Loading. Please wait.

Save Yourself Tab

version 2
version 2

Whole song

Interactive

3,441 views 6 this week
no commentswrite comment
1 2 3 4 5
excellent!
x 4
add to favorites
launch autoscroll
font size
0
reset
how to read this tab
guitar tuner
Autoscroll
slow
fast
+/-
esc
set tempo
stop
Help us to improve Ultimate-Guitar.com Take our survey!
×
Author
Stabbing Westward - "Save Yourself"
From "Darkest Days" Album
Tuning: down 1/2 step (Eb Ab Db Gb Bb Eb)
tabbed by jjhand

I tabbed this song, since there is a couple tabs that have parts correct. 
I combined them and fixed the

After Synth Intro part, play-

Guitar Main Riff (play 8x for intro):   
eb|---------------------------------------------------------|
Ab|---------------------------------------------------------|
Db|------------------------------------------------------2--|
Gb|--4-----------------------4-----------------------2---2--|
Bb|--4-----------------------4-----------------------2---0--|
Eb|--2--*2.2-*2.2-*2.2-*2.2--2--*2.2-*2.2-*2.2-*2.2--0------|
Stars above are Natural Harmonics

Verses are mostly bass/Synth, except a lick after the lyrics stop:
eb|----------9---|---------9---|
Bb|--7-8-7-8-----|-7-8-7-8-----|
Gb|--------------|-------------|
Db|--------------|-------------|
Ab|--------------|-------------|
Eb|--------------|-------------|


Chorus (play 2x):
eb|-----------------|-----------------|
Bb|-----------------|-----------------|
Gb|-7-7-7-7-7-7-7-7-|-9-9-9-9-9-9-9-9-|
Db|-7-7-7-7-7-7-7-7-|-9-9-9-9-9-9-9-9-|
Ab|-5-5-5-5-5-5-5-5-|-7-7-7-7-7-7-7-7-|
Eb|-5-5-5-5-5-5-5-5-|-7-7-7-7-7-7-7-7-|

eb|---------------------------------------------------------|
Ab|---------------------------------------------------------|
Db|------------------------------------------------------2--|
Gb|--4-----------------------4-----------------------2---2--|
Bb|--4-----------------------4-----------------------2---0--|
Eb|--2--*2.2-*2.2-*2.2-*2.2--2--*2.2-*2.2-*2.2-*2.2--0------|

eb|---------------------------------------------------------|
Ab|---------------------------------------------------------|
Db|------------------------------------------------------2--|
Gb|--4-----------------------4-----------------------2---2--|
Bb|--4-----------------------4-----------------------2---0--|
Eb|--2--*2.2-*2.2-*2.2-*2.2--2--*2.2-*2.2-*2.2-*2.2--0------|


Play Verse & Chorus again

Bridge:
eb|-----------------|-----------------|-----------------|-----------------|
Ab|-----------------|-----------------|-----------------|-----------------|
Db|-----------------|-----------------|-----------------|-----------------|
Gb|-----------------|-----------------|-----------------|-----------------|
Ab|-6-6-6-6-6-6-6-6-|-----------------|-----------------|-----------------|
Eb|-----------------|-7-7-7-7-7-7-7-7-|-6-6-6-6-6-6-6-6-|-5-5-5-5-5-5-5-5-|

play this part 3x
    Dm                Bb                Ab min            G 
eb|-----------------|-----------------|-----------------|-----------------|
Ab|-----------------|-----------------|-----------------|-----------------|
Db|-----------------|-----------------|-----------------|-----------------|
Gb|-4-4-4-4-4-4-4-4-|-----------------|-----------------|-----------------|
Ab|-6-6-6-6-6-6-6-6-|-7-7-7-7-7-7-7-7-|-4-4-4-4-4-4-4-4-|-5-5-5-5-5-5-5-5-|
Eb|-----------------|-7-7-7-7-7-7-7-7-|-6-6-6-6-6-6-6-6-|-5-5-5-5-5-5-5-5-|

Heavy Part - play 7x        Ending: 
eb|-----------------|      |------------------------|----------|
Ab|-----------------|      |------------------------|----------|
Db|-9-9-9-9-9-9-9\--|      |-11-11-11-11b--11-11-11-|-11b13~---|
Gb|-----------------|      |------------------------|----------|
Ab|-7-7-7-7-7-7-7\--|      |-9--9--9--9b---9--9--9--|--9b11~---|
Eb|-----------------|      |------------------------|----------|


Verse Continues

Play Chorus to end

Key:
b  - bend
\  - slide
~  - vibrato
Suggest correction
comments
print report bad tab
guest
You may want to rate the tab now too:
select rating
Please do not post tabs as comments. Select "correction" instead!