Oops, an error
Loading. Please wait.

So Far Away Tab

version 1
version 1

Whole song

Interactive

677 views 10 this week
no commentswrite comment
1 2 3 4 5
please rate
add to favorites
launch autoscroll
font size
0
reset
how to read this tab
guitar tuner
Tab Pro tools
  • play this tab
  • loop segment
  • change instrument
  • show fretboard
  • metronome
×
Best way to learn
"So Far Away"
Autoscroll
slow
fast
+/-
esc
set tempo
stop
Stabbing Westward – So Far Away

Tabbed by: Jase  (wnc_master@hotmail.com OR theswantonbomb@dangerous-minds.com)

Symbols: 
======== 
7b(9) = Bend the 7th fret to the pitch of the 9th 
v = vibrato 
h = hammer-on 

Standard Tuning 
=============== 

Intro: (w/wah) 
 *These notes can be played once each or several times each. It really
 doesn't matter and it sounds good either way. 
                                                                 (1x) 
E|------------------------------------------------------------------| 
B|------------------------------------------------------------------| 
G|----14----12----9-----7---10--9----5-----7----4-------0----0h2----| 
D|------------------------------------------------------------------| 
A|------------------------------------------------------------------| 
E|------------------------------------------------------------------| 

Verse: Its an acoustic guitar in the back...I can't figure out what it 
is though.  If you know, comment back to this.
      
Chorus: (w/distortion) 
      
E|-----------------------------------------------------------------| 
B|-----------------------------------------------------------------| 
G|-----------------------------------------------------------------| 
D|---3-3-3-3-3-3-3-3--5-5-5-5-5-5-5-5--7-7-7-7--7-7-7-7---7-7--7-7-| 
A|---3-3-3-3-3-3-3-3--5-5-5-5-5-5-5-5--7-7-7-7--7-7-7-7---7-7--7-7-| 
E|---1-1-1-1-1-1-1-1--3-3-3-3-3-3-3-3--5-5-5-5--5-5-5-5---5-5--5-5-| 

Break after 2nd Chorus: 
 * This could be a keyboard part, I can't really tell. This can also 
be played as the intro, which is the same thing, except an octave lower. 
                                                       (2x) 
E|----17----15----12----10---13--12----8-----10------5----| 
B|--------------------------------------------------------| 
G|--------------------------------------------------------| 

2nd Guitar at the end of the break: 
                                                             (1x) 
E|--------------------------------------------------------------| 
B|--------------------------------------------------------------| 
G|--------------------------------7b(9)--------7b(9)--7---5v----| 

Bridge: 
     
E|---------------------------------------------------------| 
B|--5--5--5--5--5--5--------------------7--7--7--7--7--7---| 
G|--5--5--5--5--5--5--------------------7--7--7--7--7--7---| 
D|--5--5--5--5--5--5--------------------7--7--7--7--7--7---| 
A|--3--3--3--3--3--3--------------------5--5--5--5--5--5---| 
E|---------------------------------------------------------| 
   "We need to find a way to break the silence" 

After this, play the chorus 4 times, and end on an A chord. 

Some of the notes from the intro ring out at the end as well.
comments
We did not receive enough feedback on this tab! Please rate:
print report bad tab
1 2 3 4 5
I want to post or [tab]
guest
You may want to rate the tab now too:
select rating
Please do not post tabs as comments. Select "correction" instead!