Oops, an error
Loading. Please wait.

Ungod Tab

165 views 1 this week
no commentswrite comment
1 2 3 4 5
please rate
add to favorites
launch autoscroll
font size
0
reset
how to read this tab
guitar tuner
Autoscroll
slow
fast
+/-
esc
set tempo
stop
Help us to improve Ultimate-Guitar.com Take our survey!
×
Ungod by Stabbing Westward

Tabbed by Dave Bloom

mizar_alcor@yahoo.com


Tuning...

D
A
D
G
B
e

There are basically only two riffs to this song...

A pre Chorus, and the chorus... which is the same as
Filter's "Hey Man Nice Shot"


Pre Chorus..

Do this twice...
---------------------------------------------------------|
---------------------------------------------------------|
-7--7--7----7-7-7-7---7-7-7--7-7--7--5-------------------|
-7--7--7----7-7-7-7---7-7-7--7-7--7--5-------------------|
-5--5--5----5-5-5-5---5-5-5--5-5--5--3-------------------|
---------------------------------------------------------|

---------------------------------------------------------|
---------------------------------------------------------|
---------------------------------------------------------|
-7-7---7-7---7-7-7-7--7-7-3-3-3-3-3-3-3-3-3-3------------|
-5-5---5-5---5-5-5-5--5-5-3-3-3-3-3-3-3-3-3-3------------|
--------------------------3-3-3-3-3-3-3-3-3-3------------|


----------------------------------------------------------------|
----------------------------------------------------------------|
----------------------------------------------------------------|
----------------------------------------------------------------|
-0-10-12-0-10-12-0-10-12-0-10-12-0-10-9-0-10-9-0-10-9-0-10-9-0--|
-0-10-12-0-10-12-0-10-12-0-10-12-0-10-9-0-10-9-0-10-9-0-10-9-0--|


------------------------------------------------------|
------------------------------------------------------|
------------------------------------------------------|
------------------------------------------------------|
-0-5-7-0-5-7-0-5-7-0-5-7-0-5-3-0-5-3-0-5-3-0-5-3-0----|
-0-5-7-0-5-7-0-5-7-0-5-7-0-5-3-0-5-3-0-5-3-0-5-3-0----|

Play this after the chorus...

----------------------------------------------------------------|
----------------------------------------------------------------|
----------------------------------------------------------------|
----------------------------------------------------------------|
-0-10-12-0-10-12-0-10-12-0-10-12-0------------------------------|
-0-10-12-0-10-12-0-10-12-0-10-12-0------------------------------|


 The Words...


  You don't understand this

  I think you never did

  Silently I search for a reason to exist

  I've found a way to feel you, I feel so ***ing old

  Your're burning up inside me, but I feel so ***ing cold

  You are clutched tight in my fingers

  You caress my skin so light

  You are welling up inside me

  You have finally freed yourself

  You are flowing 'cross my pale skin

  You are running down my arm

  You are salty as I taste you

  I have finally made you warm

  I have finally made you warm


  You stare at me so silent, you stare at me so cold

  I think you stare right through me, that stare has made me old

  I've found a way to fell you, I feel so ***ing old

  You're burning up inside me, I feel so ***ing cold


  You are clutched tight in my fingers

  You caress my skin so light

  You are welling up inside me

  You have finally freed yourself

  You are flowing 'cross my pale skin

  You are running down my arm

  You are salty as I taste you

  I have finally made you warm


  Take this...as an offering

  Take this...as a sign

  Take this...as an offering

  How much can you take from?

  How much can you take from me?

  I sink into this darkenss, I sink into this cold

  This emptiness is calling, I've nothing left to lose

  I've found a way to kill you, I feel so ***ing cold

  You're burning up inside me, I feel so ***ing old

  You are clutched tight in my fingers

  You caress my skin so light

  You are welling up inside me

  You have finally freed yourself

  You are flowing 'cross my pale skin

  You are running down my arm

  You are salty as I taste you

  I have finally made you warm


  Take this...as an offering

  Take this...as a sign

  Take this...as an offering

  How much can you take from?

  How much can you take from?

  Take this...as an offering

  Take this...as a sign

  Take this...as an offering

  How much can you take from?

  How much can you take from me?
Suggest correction
Give kudos to tab author, rate the tab!
1 2 3 4 5
comments
print report bad tab
guest
You may want to rate the tab now too:
select rating
Wanna post a correction for this tab? Suggest correction