Oops, an error
Loading. Please wait.

Wasted Tab

720 views 3 this week
no commentswrite comment
1 2 3 4 5
please rate
add to favorites
launch autoscroll
font size
0
reset
how to read this tab
guitar tuner
Autoscroll
slow
fast
+/-
esc
set tempo
stop
Help us to improve Ultimate-Guitar.com Take our survey!
×
Stabbing Westward - Wasted
Tabbed By: Greg R.
Album: Stabbing Westward
Tuning: Standard
EBGDAE high to low

Intro: Guitar 1

-------------------------------------------------------------------
-------------------------------------------------------------------
-----0---3-2-----0-------0---3-2----6---------0---3-2-----0--------
-0-3---0-------3-----0-3---0------3---3-2-0-3---0-------3---3-2---0
----------------------------------------------------------------3--
-------------------------------------------------------------------

Intro: Guitar 2

-------------------------------------------------------------------
-------------------------------------------------------------------
-------------------------------------------------------------------
------5----------10-9-----5-------10-9---------5---------10-9----7-
------5----------10-9-----5-------10-9---------5---------10-9----7-
------3-----------8-7-----3--------8-7---------3----------8-7----5-

Verse: Guitar 1


-8-5-5-8---7-5-5-7---6-5-5-6---10-------10-
----------------------------------10-10----
-------------------------------------------
-------------------------------------------
-------------------------------------------
-------------------------------------------

Chorus: Guitar 1             end with

---------------------------  --------
---------------------------  --------
--7-----------------10--12-  ---7----
--7-----8-----5-----10--12-  ---7----
--5-----8-----5------8--10-  ---5----
--------6-----3------------  --------

Bridge: Guitar 1

----------------------------------------------
----------------------------------------------
-----0---3-2-----0-------0---3-2----6---------
-0-3---0-------3-----0-3---0------3---3-2---0-
------------------------------------------3---
----------------------------------------------

Break: Guitar 1

-1--------------0-----------0---------
-3--------------1-----------1---------
-2--------------2-----------2---------
-0--------------3-----------2---------
--------------------------------------
--------------------------------------

----------------------------------------------------------------
-15------15------15------15------13------13------13------13-----
-----14------14------14------14------12------12------12------12-
----------------------------------------------------------------
----------------------------------------------------------------
----------------------------------------------------------------

--------------------------------
-11------11------11------11-----
-----10------10------10------10-
--------------------------------
--------------------------------
--------------------------------

Chorus 2: guitar 1

----------------------
----------------------
-7-------------10--9--
-7----8----5----------
-5----8----5----8--7--
------6----3----------
Suggest correction
What's this?
You can suggest a correction to this tab. Community and Mods will review your correction and vote to approve or reject it.
comments
We did not receive enough feedback on this tab! Please rate:
print report bad tab
1 2 3 4 5
guest
You may want to rate the tab now too:
select rating
Please do not post tabs as comments. Select "correction" instead!