Oops, an error
Loading. Please wait.

One More Pill Tab

738 views 1 this week
2 commentsread comments
1 2 3 4 5
1 last vote to show rating
add to favorites
launch autoscroll
font size
0
reset
how to read this tab
guitar tuner
×
Best way to learn
"One More Pill"
Autoscroll
slow
fast
+/-
esc
set tempo
stop
Sorry this is only the intro and the verse, first tab. These guys are great though, 
band.


e------------------|
B------------------|
G-6-------7--------|
D-7-------7--------|
A-7-------x--------|
E-5-------5--------|


Definitely try to get more tabs up here from Stabilo soon, I can't find any anywhere
except for Everybody, which is also a great song so check it out if you haven't heard
it.


I'll put the chorus up soon, its hard to hear though so i'm still working on it, my apologies.
Suggest correction
Give kudos to tab author, rate the tab!
1 2 3 4 5
comments
print report bad tab
2 comments total.
0 reply
radioheadfreak 60 Nov 29, 2005 09:50 AM

horrible horrible tab, nothing is right about it. why bother submitting something like this...you don't think people can figure something like this out for themselves. Whoever allowed this tab to be posted shoul;d be fired. And you should immediately stop playing guitar as you are a disgrace, just quit. It'll do us all some good.

0 reply
Najib 30 Feb 05, 2006 04:59 AM

christ dude, relax.
It sounds close at least, it's not that bad.

I think the intro is more like...
If i can get the rest of the song tabbed out I'll post a tab.

e----0--------0-------|
B----2--------3-------|
G----2--------2-------|
D---(2)------(2)------|
A-00-x-----00-x-------|
E---------------------|

oh and the interlude i think is something like

e------------------------(0)--|
B------3-------0-------(0)----|
G-----4-4-----2-2-----1-------|
D----4---4---2---2---2--------|
A---2-----2-0-----0-2---------|
E------------------0----------|

I dont know if its right, and if a note is in brackets that means I'm not too sure about it, or you can play it if you want but Boss may not.

guest
You may want to rate the tab now too:
select rating
Wanna post a correction for this tab? Suggest correction