Oops, an error
Loading. Please wait.

El Hombre Del Piano Tab

by Stafas
22 views 1 this week
no commentswrite comment
1 2 3 4 5
3 more votes to show rating
add to favorites
launch autoscroll
font size
0
reset
how to read this tab
guitar tuner
Autoscroll
slow
fast
+/-
esc
set tempo
stop
Aqui os dejo una versión hecha por Stafas, espero que os venga bien.

Para dudas o lo que sea: elrubas82@


Intro

E ------------------------------------------------------------------------------|
B ------------------------------------------------------------------------------|
G --2-2-2-2-0---0-----------------------------2-2-2-2-0---0---------------------|
D ------------4---4--0--0---0-5-4-0-2---2-4-5-----------4---4-0---0---0-5-4-0-0-|
A ------------------------4-----------------------------------------4-----------|
E ------------------------------------------------------------------------------|


D
Esta es la historia de un sabado

de no importa que mes
D
y de un hombre sentado al piano
            G        A      D
de no importa que viejo cafe.

E -------------------------------------|
B -------------------------------------|
G --2-2-2-2-0---0----------------------|
D ------------4---4--0--0---0-5-4-0-0--|
A ------------------------4------------|
E -------------------------------------|

D                          B
Toma el vaso y le tiemblan las manos
G                    A
apestando entre humo y sudor
D                        B
y se agarra a su tabla de naufrago
G                   A         B
volviendo a su eterna cancion.

E --------------------------------------|
B --------------------------------------|
G --------------------------------------|
D --------------------------4-22-2-4-55-|
A --2-22 4-54-22---2-22-4-5-------------|
E --------------------------------------|

(Igual que la estrofa anterior)

Toca otra vez, viejo perdedor
haces que me sienta bien.
Es tan triste la noche que tu cancion
sabe a derrota y a hiel.

E -------------------------------------|
B -------------------------------------|
G --2-2-2-2-0---0----------------------|
D ------------4---4--0--0---0-5-4-0-0--|
A ------------------------4------------|
E -------------------------------------|

Cada vez que el espejo de la pared
le devuelve m s joven la piel
se le encienden los ojos y su niñez
viene a tocar junto a el.


Pero siempre hay borrachos con babas
que le recuerdan quien fue:
el mas joven maestro al piano
vencido por una mujer.


E --------------------------------------|
B --------------------------------------|
G --------------------------------------|
D --------------------------4-22-2-4-55-|
A --2-22 4-54-22---2-22-4-5-------------|
E --------------------------------------|


Ella siempre temi¢ echar ra¡ces
que pudieran sus alas cortar
y en la jaula metida la vida se iba
y quiso sus alas robar.

No lamenta que de malos pasos
aunque nunca desea su mal
pero a ratos, con furia, golpea el piano
y hay algunos que le han visto llorar.


E --------------------------------------|
B --------------------------------------|
G --------------------------------------|
D --------------------------4-22-2-4-55-|
A --2-22 4-54-22---2-22-4-5-------------|
E --------------------------------------|

Toca otra vez, viejo perdedor
haces que me sienta bien.
Es tan triste la noche que tu cancion
sabe a derrota y a hiel.

E -------------------------------------|
B -------------------------------------|
G --2-2-2-2-0---0----------------------|
D ------------4---4--0--0---0-5-4-0-0--|
A ------------------------4------------|
E -------------------------------------|

El microfono huele a cerveza
y el calor se podria cortar.
Solitarios, oscuros, buscando pareja
apurandose un sabado mas.

Hay un hombre aferrado al pianno
la emocion empapada en alcohol
y una voz que le dice 'pareces cansado'
y aun no ha salido ni el sol.

E --------------------------------------|
B --------------------------------------|
G --------------------------------------|
D --------------------------4-22-2-4-55-|
A --2-22 4-54-22---2-22-4-5-------------|
E --------------------------------------|

Toca otra vez, viejo perdedor
haces que me sienta bien.
Es tan triste la noche que tu cancion
sabe a derrota y a hiel.

E ------------------------------------------------------------------------------|
B ------------------------------------------------------------------------------|
G --2-2-2-2-0---0-----------------------------2-2-2-2-0---0---------------------| X2
D ------------4---4--0--0---0-5-4-0-2---2-4-5-----------4---4-0---0---0-5-4-0-0-|
A ------------------------4-----------------------------------------4-----------|
E ------------------------------------------------------------------------------|
Suggest correction
Give kudos to tab author, rate the tab!
1 2 3 4 5
comments
print report bad tab
guest
Wanna post a correction for this tab? Suggest correction