Oops, an error
Loading. Please wait.

Perfect Prize tab

148 views 1 this week
no commentswrite comment
1 2 3 4 5
x 3
add to favorites
×
Save as Personal and add changes to this tab that will be seen only by you. Learn more ›
×
You can save this tab as Personal to edit and correct it or add notes. All changes will be seen only by you. Learn more »
launch autoscroll
font size
0
reset
how to read this tab
guitar tuner
edit
Autoscroll
slow
fast
+/-
esc
set tempo
stop
Author
Band: Staggered Crossing 
Song: Perfect Prize
Album: Burgundy & Blue  
Your Tabber for tonight will be: Eric Huynh'er

Email: erichuynh@shaw.ca

Drop D Tuning

~ = Vibrato
^ = bend up
h = hammer on 
P = pull off
m = palm mute


Intro
|--------------------------------------------------------------------------|
|--------------------------------------------------------------------------|
|--------------------------------------------------------------------------|
|-0-0-0-----1--0-------0---------------------------------------------------|
|-0-0-0-----1--0—0h1-2---0h2p0p2p0p2---------------------------------------|
|-0-0-0-----1--0----------------------^2-0---------------------------------| X 2

|--------------------------------------------------3—3h---------3----------|
|--------------------------------------------------3—3h5p0p5p0----3--------|
|--------------------------------------------------0—0h--------------------|
|-2h4-2---0--—-------------0-------2h4-2---0-------0—0h--------------------|
|-------4------0---0---2h0-----0-0-------4-----0---------------------------|
|-----------4~---4^----------0---------------4-----------------------------|

Verse
|--------------------------------------------------3—3h---------3----------|
|--------------------------------------------------3—3h5p0p5p0----3--------|
|--------------------------------------------------0—0h--------------------|
|-2h4-2---0--—-------------0-------2h4-2---0-------0—0h--------------------|
|-------4------0---0---2h0-----0-0-------4-----0---------------------------|
|-----------4~---4^----------0---------------4-----------------------------| X 3

Pre-chorus
|--------------------------------------------------------------------------|
|--------------------------------------------------------------------------|
|--------------------------------------------------------------------------|
|-3—3m-3m-3m-3m-3m---5-5m-5m-5m-5m-5m--------------------------------------|
|-3—3m-3m-3m-3m-3m---5-5m-5m-5m-5m-5m--------------------------------------|
|-3—3m-3m-3m-3m-3m---5—5m-5m-5m-5m-5m--------------------------------------| X 2

Chorus
|--------------------------------------------------------------------------|
|--------------------------------------------------------------------------|
|--------------------------------------------------------------------------|
|-0-0--7-7--0----0-0--7-7-7--0----0-0--7-7--0----0-0--7-5---5m-5m-5m-5m-5m-|
|-0-0--7-7--0----0—0--7-7-7--0----0-0--7-7--0----0-0--7-5---5m-5m-5m-5m-5m-|
|-0-0--7-7--0----0-0--7-7-7--0----0-0--7-7--0----0-0--7-5---5m-5m-5m-5m-5m-|


|--------------------------------------------------------------------------|
|--------------------------------------------------------------------------|
|--------------------------------------------------------------------------|
|-3—3m-3m-3m-3m-3m---5-5m-5m-5m-5m-5m--------------------------------------|
|-3—3m-3m-3m-3m-3m---5-5m-5m-5m-5m-5m--------------------------------------|
|-3—3m-3m-3m-3m-3m---5—5m-5m-5m-5m-5m--------------------------------------|

Pre-Verse
|--------------------------------------------------3—3h---------3----------|
|--------------------------------------------------3—3h5p0p5p0----3--------|
|--------------------------------------------------0—0h--------------------|
|-2h4-2---0--—-------------0-------2h4-2---0-------0—0h--------------------|
|-------4------0---0---2h0-----0-0-------4-----0---------------------------|
|-----------4~---4^----------0---------------4-----------------------------|



Verse2
|--------------------------------------------------3—3h---------3----------|
|--------------------------------------------------3—3h5p0p5p0----3--------|
|--------------------------------------------------0—0h--------------------|
|-2h4-2---0--—-------------0-------2h4-2---0-------0—0h--------------------|
|-------4------0---0---2h0-----0-0-------4-----0---------------------------|
|-----------4~---4^----------0---------------4-----------------------------| X 2

Pre-chorus
|--------------------------------------------------------------------------|
|--------------------------------------------------------------------------|
|--------------------------------------------------------------------------|
|-3—3m-3m-3m-3m-3m---5-5m-5m-5m-5m-5m--------------------------------------|
|-3—3m-3m-3m-3m-3m---5-5m-5m-5m-5m-5m--------------------------------------|
|-3—3m-3m-3m-3m-3m---5—5m-5m-5m-5m-5m--------------------------------------| X 2

Chorus
|--------------------------------------------------------------------------|
|--------------------------------------------------------------------------|
|--------------------------------------------------------------------------|
|-0-0--7-7--0----0-0--7-7-7--0----0-0--7-7--0----0-0--7-5---5m-5m-5m-5m-5m-|
|-0-0--7-7--0----0—0--7-7-7--0----0-0--7-7--0----0-0--7-5---5m-5m-5m-5m-5m-|
|-0-0--7-7--0----0-0--7-7-7--0----0-0--7-7--0----0-0--7-5---5m-5m-5m-5m-5m-| X 2
(For this chorus first time through there's a slight, slight change, they do
the palm mute thing barred on 5 twice if you listen to the song) 

|--------------------------------------------------------------------------|
|--------------------------------------------------------------------------|
|--------------------------------------------------------------------------|
|-3—3m-3m-3m-3m-3m---5-5m-5m-5m-5m-5m--------------------------------------|
|-3—3m-3m-3m-3m-3m---5-5m-5m-5m-5m-5m--------------------------------------|
|-3—3m-3m-3m-3m-3m---5—5m-5m-5m-5m-5m--------------------------------------|

Back to intro
|--------------------------------------------------------------------------|
|--------------------------------------------------------------------------|
|--------------------------------------------------------------------------|
|-0-0-0-----1--0-------0---------------------------------------------------|
|-0-0-0-----1--0—0h1-2---0h2p0p2p0p2---------------------------------------|
|-0-0-0-----1--0----------------------^2-0---------------------------------| X 2

|--------------------------------------------------3—3h---------3----------|
|--------------------------------------------------3—3h5p0p5p0----3--------|
|--------------------------------------------------0—0h--------------------|
|-2h4-2---0--—-------------0-------2h4-2---0-------0—0h--------------------|
|-------4------0---0---2h0-----0-0-------4-----0---------------------------|
|-----------4~---4^----------0---------------4-----------------------------|

Verse 3
|--------------------------------------------------3—3h---------3----------|
|--------------------------------------------------3—3h5p0p5p0----3--------|
|--------------------------------------------------0—0h--------------------|
|-2h4-2---0--—-------------0-------2h4-2---0-------0—0h--------------------|
|-------4------0---0---2h0-----0-0-------4-----0---------------------------|
|-----------4~---4^----------0---------------4-----------------------------|

Pre-chorus
|--------------------------------------------------------------------------|
|--------------------------------------------------------------------------|
|--------------------------------------------------------------------------|
|-3—3m-3m-3m-3m-3m---5-5m-5m-5m-5m-5m--------------------------------------|
|-3—3m-3m-3m-3m-3m---5-5m-5m-5m-5m-5m--------------------------------------|
|-3—3m-3m-3m-3m-3m---5—5m-5m-5m-5m-5m--------------------------------------|







Chorus
|--------------------------------------------------------------------------|
|--------------------------------------------------------------------------|
|--------------------------------------------------------------------------|
|-0-0--7-7--0----0-0--7-7-7--0----0-0--7-7--0----0-0--7-5---5m-5m-5m-5m-5m-|
|-0-0--7-7--0----0—0--7-7-7--0----0-0--7-7--0----0-0--7-5---5m-5m-5m-5m-5m-|
|-0-0--7-7--0----0-0--7-7-7--0----0-0--7-7--0----0-0--7-5---5m-5m-5m-5m-5m-| X 3
(Here's another dumb slight change with the mute thing again, they do the
palm mute thing barred on 5 twice through the first 2 times you play it,
the 3rd time through you do it only once.)

|--------------------------------------------------------------------------|
|--------------------------------------------------------------------------|
|--------------------------------------------------------------------------|
|-3—3m-3m-3m-3m-3m---5-5m-5m-5m-5m-5m--------------------------------------|
|-3—3m-3m-3m-3m-3m---5-5m-5m-5m-5m-5m--------------------------------------|
|-3—3m-3m-3m-3m-3m---5—5m-5m-5m-5m-5m--------------------------------------|

Back to first part of intro
|--------------------------------------------------------------------------|
|--------------------------------------------------------------------------|
|--------------------------------------------------------------------------|
|-0-0-0-----1--0-------0---------------------------------------------------|
|-0-0-0-----1--0—0h1-2---0h2p0p2p0p2---------------------------------------|
|-0-0-0-----1--0----------------------^2-0---------------------------------|

|--------------------------------------------------------------------------|
|--------------------------------------------------------------------------|
|--------------------------------------------------------------------------|
|-0-0-0-----1--0-------0-----------------0---------------------------------|
|-0-0-0-----1--0—0h1-2---0h2p0p2p0p2-----0---------------------------------|
|-0-0-0-----1--0----------------------^2-0---------------------------------|


This is my first tab, I know its crap, but helpful feedback will be much appreciated.
Please email me. =)

            
            
Suggest correction
Creating personal tab
Creating personal tab
You can edit any tab online and save it as your Personal.

You can edit, replace or remove any tab part or add personal notes – all changes will be seen only by you.

Personal tabs can be accessed anytime from any device, even offline.
Learn more »
Give kudos to tab author, rate the tab!
1 2 3 4 5
comments
print report bad tab
guest
You may want to rate the tab now too:
select rating
Wanna post a correction for this tab? Suggest correction