Oops, an error
Loading. Please wait.

La Playa Tab

35 views 1 this week
no commentswrite comment
1 2 3 4 5
3 more votes to show rating
add to favorites
launch autoscroll
font size
0
reset
how to read this tab
guitar tuner
Autoscroll
slow
fast
+/-
esc
set tempo
stop
Help us to improve Ultimate-Guitar.com Take our survey!
×
RIFF1
E||--x--x--x--x-----------------||
B||--x--x--x--x-----------------||
G||--7--7--9--11----------------||
D||--x--x--x--x-----------------||
A||--5--5--7--9-----------------||
E||--x--x--x--x-----------------||
                                     NOTAS_____________________
INTRO!                               |  G:x   C:x   E:x   D:x  |
E||-----------------------------||   |    x     x     x     x  |
B||-----------------------------||   |    x     5     9     7  |
G||-----5--9--7-----------------||   |    5     5     9     7  |
D||--5--5--9--7-----------------||   |    5     3     7     5  |
A||--5--3--7--5-----------------||   |    3     x     x     x  |
E||--3--------------------------||   |_________________________|

viernes
me voy
dejo atras los dias de ciudad del mar, el sol
                                G        C
el viaje se hace corto cuando pienso en llegar
 E      D            G           C
volver a ver a mis amigos otra vez
E               D
volver a compartir
C
dificiles momentos
RIFF1                   G
en que no hay nada más
                        D
que disfrutar tu libertad
C
todo sobre una tabla
RIFF1
que te puede llevar
G                     D
a abandonar la realidad
C                     D
y irme muy lejos de aquí.

Arpegio
||--------------------------------------------||
||--------------------------------------------||
||--------4----------5----------4-------------||
||------5---5------5---5------4---4-----------||
||----5-------5--3-------3--2-------2-3-3-2-0-||
||--3-----------------------------------------||


C
corriendo sobre mi tabla
Riff1
puedo dejar atras
G                         D
todo lo que quiero olvidar
C
tantos momentos tristes
RIFF1
que debo empezar
G                     D
por un momento yo podré
C      D
estar muy lejos


G        C
tiempo, llego
E             D                 G
las horas de volver a mi ciudad
     C          E
el mar, el sol
D                           G
mis amigos en mi memoria estarán...


Suggest correction
Give kudos to tab author, rate the tab!
1 2 3 4 5
comments
print report bad tab
guest
You may want to rate the tab now too:
select rating
Wanna post a correction for this tab? Suggest correction