Oops, an error
Loading. Please wait.
We have an official Everything Changes tab made by UG professional guitarists. Check out the tab »
×
by Staind
24,878 views 15 this week
3 commentsread comments
1 2 3 4 5
x 15
add to favorites
×
Save as Personal and add changes to this tab that will be seen only by you. Learn more ›
×
You can save this tab as Personal to edit and correct it or add notes. All changes will be seen only by you. Learn more »
launch autoscroll
font size
0
reset
how to read this tab
guitar tuner
edit
Autoscroll
slow
fast
+/-
esc
set tempo
stop
Author
Difficulty
e------------------------|
B-7^-7^-7--5--4-4-4h5-2--|
G------------------------|1:57-2:02
D------------------------| 
A------------------------|
E------------------------|

e-9--7-5-4--5--7--2-0-2-4-4^-4-4444-5-7-/12-11-9--14-12-11--16^----|
B------------------------------------------------------------------|
G------------------------------------------------------------------|
D------------------------------------------------------------------|2:03-2:15
A------------------------------------------------------------------|
E------------------------------------------------------------------|

e-16^-14-12-11h12-11--------------------------|
B--------------------12-14-12-----------------|
G-----------------------------11-8-9---8--/6--|
D---------------------------------------------| 2:16-2:24
A---------------------------------------------|
E---------------------------------------------|
                              PM....     

            
            
Suggest correction
Creating personal tab
Creating personal tab
You can edit any tab online and save it as your Personal.

You can edit, replace or remove any tab part or add personal notes – all changes will be seen only by you.

Personal tabs can be accessed anytime from any device, even offline.
Learn more »
comments
print report bad tab
3 comments total.
+1 reply
CrazyEyes 10 Apr 01, 2006 07:57 AM

French Fries and Oreos, you know me too well, Deeds

+1 reply
domertobe14 31 Jan 17, 2007 06:31 AM

Perfect tab, sounds just like the song. Good work.

+1 reply
rockerep 31 Jul 30, 2008 02:59 PM

amazing 100%

guest
You may want to rate the tab now too:
select rating
Wanna post a correction for this tab? Suggest correction