Oops, an error
Loading. Please wait.

Eyes Wide Open Bass Tab

version 1
version 1

Whole song

Interactive

3,327 views 9 this week
no commentswrite comment
1 2 3 4 5
please rate
add to favorites
launch autoscroll
font size
0
reset
guitar tuner
Autoscroll
slow
fast
+/-
esc
set tempo
stop
Help us to improve Ultimate-Guitar.com Take our survey!
×
Author
Difficulty
Tuning
novice
C# G# C# F# A# D#
Intro bass
F#|-------------------------------------------------|
C#|-------------------------------------------------|
G#|-------------------------------------------------|x4
C#|-7-7--7-7-7--7-7--7-7-7--7-7--7-7-7--5-5-5-8-8-8-|

F#|-------------------------------------------------|
C#|-------------------------------------------------|
G#|-0-----------0-----------0-----------------------|
C#|---3-0-2-3-0---3-0-2-3-0---3-0-2-3-0-5-5-5-8-8-8-|
  
F#|---------------------------------------------------|
C#|-------------------------------------2-----2-------|
G#|-0-----------0-----------0--------------3----1-0---|
C#|---3-0-2-3-0---3-0-2-3-0---3-0-2-3-0-------------3-|

F#|-------------------------------------------------|
C#|-------------------------------------------------|
G#|-0-----------0-----------0-----------------------|
C#|---3-0-2-3-0---3-0-2-3-0---3-0-2-3-0-5-5-5-8-8-8-|

F#|---------------------------------------------------|
C#|-------------------------------------2-----2-------|
G#|-0-----------0-----------0--------------3----1-0---|
C#|---3-0-2-3-0---3-0-2-3-0---3-0-2-3-0-------------3-|
Verse
F#|------------------------------------|
C#|------------------------------------|
G#|------------------------------------|x4
C#|-7-7--7-7-7-7--7-7-7-7--5-5-5-8-8-8-|

F#|-------------------------------------------------|
C#|-------------------------------------------------|
G#|-0-----------0-----------0-----------------------|
C#|---3-0-2-3-0---3-0-2-3-0---3-0-2-3-0-5-5-5-8-8-8-|

F#|---------------------------------------------------|
C#|-------------------------------------2-----2-------|
G#|-0-----------0-----------0--------------3----1-0---|
C#|---3-0-2-3-0---3-0-2-3-0---3-0-2-3-0-------------3-|
Chorus
F#|-------------------------------------------------------|
C#|-------------------------------------------------------|
G#|-------------------------------------------------------|x2
C#|-0-10-10-10-10-10-10--3--10-10---10-10-10-10--10-8--10-|  
Verse
F#|------------------------------------|
C#|------------------------------------|
G#|------------------------------------|
C#|-7-7--7-7-7-7--7-7-7-7--5-5-5-8-8-8-|

F#|-----------------|
C#|-----------------|
G#|-----------------|
C#|-7-7--7-7-7-7--7-|

 (PAUSE)

F#|------------------------------------|
C#|------------------------------------|
G#|------------------------------------|x2
C#|-7-7--7-7-7-7--7-7-7-7--5-5-5-8-8-8-|

F#|-------------------------------------------------|
C#|-------------------------------------------------|
G#|-0-----------0-----------0-----------------------|
C#|---3-0-2-3-0---3-0-2-3-0---3-0-2-3-0-5-5-5-8-8-8-|

F#|---------------------------------------------------|
C#|-------------------------------------2-----2-------|
G#|-0-----------0-----------0--------------3----1-0---|
C#|---3-0-2-3-0---3-0-2-3-0---3-0-2-3-0-------------3-|
Chorus
F#|-------------------------------------------------------|
C#|-------------------------------------------------------|
G#|-------------------------------------------------------|x2
C#|-0-10-10-10-10-10-10--3--10-10---10-10-10-10--10-8--10-|  

 (PAUSE)

Bridge 
F#|-------------------------------------------------|
C#|-------------------------------------------------| play 
G#|-------------------------------------------------| a lot
C#|-7-7-7-7-7-7-7-7-7-7-7-7-7-7-7-7-7-7-7-7-7-7-7-7-|
Solo 
F#|------------------------------------------------|
C#|------------------------------------------------|
G#|------------------------------------------------|x3
C#|-7-7-7-8p7--7-7-7-8p7--7-7-7-8p7--7-5-5-5-8-8-8-|
Chorus
F#|-------------------------------------------------------|
C#|-------------------------------------------------------|
G#|-------------------------------------------------------|x4
C#|-0-10-10-10-10-10-10--3--10-10---10-10-10-10--10-8--10-|  
Outro
F#|-------------------------------------------------|
C#|-------------------------------------------------|
G#|-0-----------0-----------0-----------------------|
C#|---3-0-2-3-0---3-0-2-3-0---3-0-2-3-0-5-5-5-8-8-8-|
  
F#|---------------------------------------------------|
C#|-------------------------------------2-----2-------|
G#|-0-----------0-----------0--------------3----1-0---|
C#|---3-0-2-3-0---3-0-2-3-0---3-0-2-3-0-------------3-|

F#|-------------------------------------------------|
C#|-------------------------------------------------|
G#|-0-----------0-----------0-----------------------|
C#|---3-0-2-3-0---3-0-2-3-0---3-0-2-3-0-5-5-5-8-8-8-|

F#|---------------------------------------------------|
C#|-------------------------------------2-----2-------|
G#|-0-----------0-----------0--------------3----1-0---|
C#|---3-0-2-3-0---3-0-2-3-0---3-0-2-3-0-------------3-|





Suggest correction
Give kudos to tab author, rate the tab!
1 2 3 4 5
comments
print report bad tab
guest
You may want to rate the tab now too:
select rating
Please do not post tabs as comments. Select "correction" instead!