Oops, an error
Loading. Please wait.
We have an official For You tab made by UG professional guitarists. Check out the tab »
×
by Staind
1,957 views 3 this week
2 commentsread comments
1 2 3 4 5
1 last vote to show rating
add to favorites
×
Save as Personal and add changes to this tab that will be seen only by you. Learn more ›
×
You can save this tab as Personal to edit and correct it or add notes. All changes will be seen only by you. Learn more »
launch autoscroll
font size
0
reset
guitar tuner
edit
Autoscroll
slow
fast
+/-
esc
set tempo
stop
Author
Difficulty
Staind - For you
Album: Break The Cycle

bass tab

by : doky 2007
taquilleros_de_sudamerica_maroyu_el_grupo_tropical_del_momento@hotmail.com

5-stringed bass
G D A E B

   INTRO/VERSO
G-|-------------------|-----|
D-|-------------------|-----|
A-|-------------------|-----|
E-|-0h1-xx-0h1-0h1-xx-|-2-1-|
B-|-------------------|-----|
                                                                              

G-|-------------------|-------------|-------------------|
D-|-------------------|-------------|----------------33-|
A-|----------------33-|-------------|-------------------|
E-|-0h1-xx-0h1-0h1----|-------------|-0h1-xx-0h1-0h1----|
B-|-------------------|-------------|-------------------|
                        o puede ser                                            

   CORO
G-|-------------------------*---------|
D-|-------------------------*---------|
A-|-------------------------*---------|
E-|-1---111---------4-4-----*---4-6-6-|
B-|---------2---222-----4---*44-------|
                                                                              

   MIDDLE
G-|------|------|-------|-------|---------------------|
D-|------|------|-------|-------|---------------------|
A-|------|------|-------|-------|---------------------|
E-|-1----|-1----|-11----|-11----|-1-x-1-x-1-x-0-x-1-x-|
B-|------|------|-------|-------|---------------------|
                                                                              
Los felicito a todos lo que iban al scuer (square) del cole desde el 2001 al 2004, porque
yo no iba a ni uno, me quedaba a ver tele, los simpsons y luego ponia mi video DVD
de maroyu en vivo toda la noche hasta el amanecer.
en vacaciones hago algo parecido, me compro una pelicula de la Tiquina y eso veo toda
la vacacion, todos los dias que no salgo, tengo que ver esa pelicula hasta que empiece
clases.

doky2007 

            
            
Suggest correction
Creating personal tab
Creating personal tab
You can edit any tab online and save it as your Personal.

You can edit, replace or remove any tab part or add personal notes – all changes will be seen only by you.

Personal tabs can be accessed anytime from any device, even offline.
Learn more »
Give kudos to tab author, rate the tab!
1 2 3 4 5
comments
print report bad tab
2 comments total.
+1 reply
alreadygone 131 Mar 07, 2007 06:40 AM

wrong tuning, wrong notes. those should be full-step hammer ons in the intro and verse. what good is posting 20 tabs a day if theyre all wrong??

0 reply
KennyM79 2,238 May 08, 2015 05:38 AM

Lack of accuracy. Tab incomplete. Clearly wrong. This isn't even in the correct tuning. The tabs don't match what is actually supposed to be played. Blatantly wrong tab.

guest
You may want to rate the tab now too:
select rating
Wanna post a correction for this tab? Suggest correction