Oops, an error
Loading. Please wait.
We have an official For You tab made by UG professional guitarists. Check out the tab »
×
by Staind
2,564 views 9 this week
no commentswrite comment
1 2 3 4 5
x 3
add to favorites
×
Save as Personal and add changes to this tab that will be seen only by you. Learn more ›
×
You can save this tab as Personal to edit and correct it or add notes. All changes will be seen only by you. Learn more »
launch autoscroll
font size
0
reset
guitar tuner
edit
Autoscroll
slow
fast
+/-
esc
set tempo
stop
Band: Staind
Song: For You
Album: Break the Cycle
Tabbed by:dzgtr
 Tuning: drop D


    Verse
G|-------------------------------------------------------------|
D|-------------------------------------------------------------|  x4
A|-------------------------------------------------------------|
D|-1-3-x-x-1-3-x-1-3-x-x-x-1-3-x-x-1-3-x-x-1-3-x-1-3-x-x-x-4-3-|

    Chorus
G|----------------------------------|
D|----------------------------------|  x4
A|----------------------------------|
D|-3-33-x-x-1-11-x-x-6-66-5-55-5555-|

      Verse x4
      Chorus x4

  Breakdown:
G|------------|
D|-3-3-3-3-33-|  x6
A|------------|
D|------------|

G|----------------------------------------------------------|
D|----3-3-3-33-------3-3-3-33--------3-3-3-3--------3-3-3-3-|
A|----------------------------------------------------------|
D|-3--------------3--------------33--------------33---------|

G|-------------|
D|-------------|  x4
A|-------------|
D|-3-3-3-3-3-1-|

   Chorus x8
   Verse x2

    Legend:
     x Mute note

     I added bass part on breakdown, in place of delayed guitar part. I hope this helped 
you. Please leave any suggestions that you have.

            
            
Suggest correction
Creating personal tab
Creating personal tab
You can edit any tab online and save it as your Personal.

You can edit, replace or remove any tab part or add personal notes – all changes will be seen only by you.

Personal tabs can be accessed anytime from any device, even offline.
Learn more »
Give kudos to tab author, rate the tab!
1 2 3 4 5
comments
print report bad tab
guest
You may want to rate the tab now too:
select rating
Wanna post a correction for this tab? Suggest correction