Oops, an error
Loading. Please wait.
We have an official Its Been Awhile tab made by UG professional guitarists. Check out the tab »
×
by Staind
82,170 views 561 this week
21 commentsread comments
1 2 3 4 5
x 33
add to favorites
×
Save as Personal and add changes to this tab that will be seen only by you. Learn more ›
×
You can save this tab as Personal to edit and correct it or add notes. All changes will be seen only by you. Learn more »
launch autoscroll
font size
0
reset
how to read this tab
guitar tuner
backing track
0:00
0:00
edit
Autoscroll
slow
fast
+/-
esc
set tempo
stop
It’s Been Awhile-Staind
Break The Cycle

Arr. for
Drop Db
Db Ab Db Gb Bb Eb

[Intro]

Fig 1.

D#|-------0---------------------------------------------------------|
A#|---3---3---3------0-----1---0------------------------------------|
F#|---2---------2----0-0-------------0---0----------------7p5-------|
C#|-2---2---------2--x-------------4---4-----4--------5-------5-----|
G#|-0---0------------3---3---------5-----------5----7---7-------7---|
C#|--------------------------------5--------------0-----------------|

[Verses]

Fig 1.

Riff A

D#|-----------------------------------------------------------------|
A#|-------10-----------------8------------8-------------------------|
F#|------------12--------9--------------------9------9--7----7--9---|
C#|--12-------------10-------------7---7----------10----------------|
G#|-----------------------------------------------------------------|
C#|-----------------------------------------------------------------|

Riff B

D#|-----------------------------------------------------------------|
A#|-----------------------------------------------------------------|
F#|-9----11h12---12---11h12----12----11h12---11h12p11---11h12p11p9--|
C#|-----------------------------------------------------------------|
G#|-----------------------------------------------------------------|
C#|-----------------------------------------------------------------|


[Chorus]

D#|-0---0---0-0---0---0---0-0---3---3-3--3-3------------------------|
A#|-1---1---1-1---1---1---1-1---3---3-3--3-3------------------------|
F#|-2---2---2-2---0---0---0-0---0---0-0--0-0-----5--5\4--4/5--5-----|
C#|-2---2---2-2---2---2---2-2---0---0-0--0-0--x--0--0-0--0-0--0-----|
G#|-0---0---0-0---3---3---3-3---x---x-x--x-x--x--3--3\2--2/3--3-----|
C#|-----------------------------5---5-5--5-5--x--0--0-0--0-0--0-----|


[Bridge]

D#|-3---------------------------------------------------------------|
A#|-3----------------------------------------0-----0----------------|
F#|-0----9/12-12\9-7----7/9-9\7--5-------------5-----5--------------|
C#|-0----x--x--x-x-x----x-x-x-x--x--7------------7-----5-4----------|
G#|-x----7/10-10\7-5----5/7-7\5--3--0-------------------------------|
C#|-5--------------0----0---0---------------------------------------|



************************************

| x  Dead note
| h  Hammer-on
| p  Pull-off
| /  Slide up
| \  Slide down 

************************************
Suggest correction
Creating personal tab
Creating personal tab
You can edit any tab online and save it as your Personal.

You can edit, replace or remove any tab part or add personal notes – all changes will be seen only by you.

Personal tabs can be accessed anytime from any device, even offline.
Learn more »
comments
print report bad tab
21 comments total. Showing first comments.
0 reply
CeLTiCs3410 35 Nov 22, 2004 07:00 PM

good tabs, but your lyrics are off

0 reply
Mr_Big_David 10 Feb 05, 2005 07:00 PM

Nice...... Best I've seen.

0 reply
ibanezguitr88 10 Jun 26, 2005 08:00 PM

you guys are all wrong although it sounds a bit like the song ur still WRONG!!
teh picking part goes
--------------------------------------
---3-------1p0---------------3-1------------
--2-2-----0---0-----0------0-----0------------
-2---2---2-----2--4--4----2-2-----2------------repeat
0-----0-3----------5--5--0------------------
-----------------5-----5----------------
so how bout u guys go practice that and then learn how to tab

guest
Wanna post a correction for this tab? Suggest correction