Oops, an error
Loading. Please wait.

Just Go bass

version 1
version 1

Whole song

Interactive

by Staind
847 views 1 this week
no commentswrite comment
1 2 3 4 5
2 more votes to show rating
add to favorites
×
Save as Personal and add changes to this tab that will be seen only by you. Learn more ›
×
You can save this tab as Personal to edit and correct it or add notes. All changes will be seen only by you. Learn more »
launch autoscroll
font size
0
reset
guitar tuner
edit
Autoscroll
slow
fast
+/-
esc
set tempo
stop
Author
Difficulty
Artist: Staind	
Song: Just Go (track 2)
Album: Dysfunction
Tabbed By: clefmaster9
Tunning: standard 5 BEADG 

Intro: no bass x1 .00-.07

1st riff: (chorus) x2 .07-.22

2nd riff: (verse) x5 .22-1:09

1st riff: x2 1:09-1:32

guitar break: no bass 1:32-1:39

2nd riff: x4 1:39-2:08

1st riff: x4 2:08-2:39

3d riff: (bridge) x2 2:39-3:09

4th riff: (bridge var.) x4 3:09-3:34

1st riff: x4 3:34-4:06

5th riff: (outro) x16 4:06-4:49

h=hammer-on
p=pull-off
r=let note ring out
.=stop note from ringing out

1st Riff (chorus)

G|--------------------------------------------------------------|
D|--------------------------------------------------------------|
A|--7------------------------------7----------------------------|
E|-----7---5-3------------------------7---5-3-------------------|
B|-------------3h5---55--3r--------------------3h5---5--3r------|


2nd Riff (verse)

G|--------------------------------------------------|
D|--------------------------------------------------|
A|--------------------------------------------------|
E|--------------------------------2-0---------------|
B|--7r----5-7--5h7r-------0-0---0-----0r------------|


3rd Riff (bridge)

G|----|-------------------------------------------------|
D|----|-------------------------------------------------|
E|----|-------------------------------------------------|
A|----|-------------------------------------------------|
B|-6--|----4------7-------8---------7------8------4-----|


4th Riff (bridge var.)

G|---------------------|
D|---------------------|
E|---------------------|
A|---------------------|
B|---3-5---3-5---3-4---|


5th Riff (outro)          on last time 

G|--------------------|-----------------|
D|--------------------|-----------------|
E|--------------------|-----------------|
A|--3-----------------|--3--------------|
B|-----5----5--3. ----|-----5----5--3r--|


hope this tab helps you out. you can contact me at clefmaster9@yahoo.com


            
            
Suggest correction
Creating personal tab
Creating personal tab
You can edit any tab online and save it as your Personal.

You can edit, replace or remove any tab part or add personal notes – all changes will be seen only by you.

Personal tabs can be accessed anytime from any device, even offline.
Learn more »
Give kudos to tab author, rate the tab!
1 2 3 4 5
comments
print report bad tab
guest
You may want to rate the tab now too:
select rating
Wanna post a correction for this tab? Suggest correction