Oops, an error
Loading. Please wait.

Now tab

version 1
version 1

Whole song

Interactive

by Staind
9,440 views 18 this week
3 commentsread comments
1 2 3 4 5
x 3
add to favorites
×
Save as Personal and add changes to this tab that will be seen only by you. Learn more ›
×
You can save this tab as Personal to edit and correct it or add notes. All changes will be seen only by you. Learn more »
launch autoscroll
font size
0
reset
how to read this tab
guitar tuner
edit
Autoscroll
slow
fast
+/-
esc
set tempo
stop
Author
-----STAIND - NOW-----

Guitar 1 (dist.) (D-A-D-G-B-E)
Guitar 2 (dist.) (C-G-C-F-A-D)
Guitar 3 (slight dist.) (C-G-C-F-A-D)
Guitar 4 (dist. and wah-wah) (C-G-C-F-A-D)

this is really hard at first, but it's really easy once you get the hang of it:
Guitar 1                            play 5x
------|--11-----8-----11-----8-----11------|
------|O----------------------------------O|
-8-10-|----10-10-10-10--10-10-10-10--8-10--|
------|------------------------------------|
------|O----------------------------------O|
------|------------------------------------|

-11-----8-----9-----8-----8-----|
--------------------------------|
---10-10-10-10-10-10-10-10-8-10-|
--------------------------------|
--------------------------------|
--------------------------------|

-11-----8-----11-----8-----11-----|
----------------------------------|
---10-10-10-10--10-10-10-10--8-10-|
----------------------------------|
----------------------------------|
----------------------------------|

--------------9-----8-----8-|
-11-----9-------------------|
---10-10-10-10-10-10-10-10--|
----------------------------|
----------------------------|
----------------------------|

or you could do this, which is easier:
Guitar 1 (Capo I)                   play 5x
------|--11-1-1-8-1-1-11-1-1-8-1-1-11------|
------|O----------------------------------O|
-8-10-|------------------------------8-10--|
------|------------------------------------|
------|O----------------------------------O|
------|------------------------------------|

-11-1-1-8-1-1-9-1-1-8-1-1-8-----|
--------------------------------|
---------------------------8-10-|
--------------------------------|
--------------------------------|
--------------------------------|

-11-1-1-8-1-1-11-1-1-8-1-1-11-----|
----------------------------------|
-----------------------------8-10-|
----------------------------------|
----------------------------------|
----------------------------------|

-6-1-1-4-1-1-9-1-1-8-1-1-8-|
---------------------------|
---------------------------|
---------------------------|
---------------------------|
---------------------------|

Guitar 2
Intro/Pre-Chorus/Interlude (between Chorus and Verse)/Solo Rhythm
---------|---------|---------|---------|
---------|---------|---------|---------|
---------|---------|---------|---------|
-5-------|-1-------|-8-------|-3-------|
-5-------|-1-------|-8-------|-3-------|
-5-------|-1-------|-8-------|-3-------|

Guitar 3 (w/chorus)
Verse
-----|--3---------|---------|----------|--------------|
-----|O---6-------|---------|-4--3-----|----3--------O|
-2/3-|---3--------|---------|----------|-5-------2/3--|
-----|------------|-------5-|---5----5-|---5----------|
-----|O-----------|---------|----------|-------------O|
-----|------------|---------|----------|--------------|

Guitar 2
Chorus (experiment with weird rhythms and palm mutes)
---------|---------|---------|-----------|
---------|---------|---------|-----------|
---------|---------|---------|-----------|
-5-------|-0-------|-1-------|-8---10----|
-5-------|-0-------|-1-------|-8---10----|
-5-------|-0-------|-1-------|-8---10----|

Guitar 4
Solo
-----------------|---------------|
-----------------|-------------8-|
-10gb.5----------|------------7--|
-10gb.5----------|---------------|
-----------------|---------------|
-----------------|---------------|
*gb.5 = gradual half step bend

-----------------------|-10p6------------------------------|
-10b.5r-8-10-10b.5r-10-|-----8-8-11p8----------------------|
-----------------------|-------------10-7-10p7-------------|
-----------------------|----------------------8-7-10p7-----|
-----------------------|------------------------------10-8-|
-----------------------|-----------------------------------|

-------------|------------------|---15-17-17b.5-17-18-20-|
-------------|---------11-10-11-|-15---------------------|
-----------7-|-12-10-12---------|------------------------|
----------8--|------------------|------------------------|
-10-8-8-10---|------------------|------------------------|
-------------|------------------|------------------------|

-22-20-18\-18-17-15-20-18-16--------------------
----------------------------20-18-16------------
------------------------------------18-17-15-14-
------------------------------------------------
------------------------------------------------
------------------------------------------------

--------------------------------|-15----------|-----------\-|
-----------------------15-16-18-|-------------|-------------|
---------------14-15-14---------|-------------|-------------|
-17-15-14-15-17-----------------|-------------|-------------|
--------------------------------|-------------|-------------|
--------------------------------|-------------|-------------|

Guitar 2
Post-Solo/Outro                    play 3x
|------------------|----------------------|
|O-----------------|---------------------O|
|------------------|----------------------|
|--5-1-5-1-5-------|-5-1-5----------------|
|O-5-1-5-1-5---6-6-|-5-1-5-1-1---1-1---1-O|
|--5-1-5-1-5---6-6-|-5-1-5-1-1---1-1---1--|
               . .         . .   . .   .

-----------------|-----------|
-----------------|-----------|
-----------------|-----------|
-5-1-5-1-5-------|-1-1-x-3-3-|
-5-1-5-1-5---6-6-|-1-1-x-3-3-|
-5-1-5-1-5---6-6-|-1-1-x-3-3-|
             . .

---------------|---------------|
---------------|---------------|
---------------|---------------|
---------5-----|---------0-----|
-5-5---5-5-----|-0-0---0-0-----|
-5-5---5-5-----|-0-0---0-0-----|
 . .   .         . .   .

---------------|---------------------|
---------------|---------------------|
---------------|---------------------|
---------1-----|---------------------|
-1-1-1-1-1-----|-8-8-8-8-10-10-10-10-|
-1-1-1-1-1-----|-8-8-8-8-10-10-10-10-|
 . . . .         . . . .  .  .  .  .

LYRICS:
When you come to a fork in the road,
You can almost taste it.
Never knowing which way to go,
It's not been tested.

All alone you try to take it,
To fake it.
And is the road less traveled taken,
Or forsaken?

Now,
It's up to you,
The path that you choose.
Gotta do something different now.
It's all the same,
No one to blame.
Gotta do something different now.

So you head down the road that you chose,
Just keep pushing forward.
And the window is trying to close,
Just to shut you out.

And all alone you try to take it,
To fake it.
And is the road less traveled taken,
Or forsaken?

Now,
It's up to you,
The path that you choose.
Gotta do something different now.
It's all the same,
No one to blame.
Gotta do something different...

Something different...

It's up to you,
The path that you choose.
Gotta do something different now.
It's all the same,
No one to blame.
Gotta do something different now.
It's up to you,
The path that you choose.
Gotta do something different,
Gotta do something different now.

            
            
Suggest correction
Creating personal tab
Creating personal tab
You can edit any tab online and save it as your Personal.

You can edit, replace or remove any tab part or add personal notes – all changes will be seen only by you.

Personal tabs can be accessed anytime from any device, even offline.
Learn more »
Give kudos to tab author, rate the tab!
1 2 3 4 5
comments
print report bad tab
3 comments total.
0 reply
Elecstic 10 Jan 06, 2012 11:54 PM

Sweet tab, but do you think this sounds more accurate, having the 6th fret rather than 5th fret for the palm mutes?

Guitar 2
Post-Solo/Outro

-----------------|-----------|
-----------------|-----------|
-----------------|-----------|
-5-1-5-1-5-------|-1-1-x-3-3-|
-5-1-5-1-5---6-6-|-1-1-x-3-3-|
-5-1-5-1-5---6-6-|-1-1-x-3-3-|
. .

0 reply
staind_dust87 165 May 29, 2012 07:34 AM

Not a bad tab but staind do not use drop C. I'm pretty sure this is song is in drop B or lower, maybe even Ab. I think most of the lead stuff is right on, just need to transpose it to a lower tuning. I think it'd be easier to play as well if in B or A flat.

+1 reply
HoverFan#1 532 May 31, 2012 11:24 AM

I forgot to mention, I only detune songs in my tabs as low as I have to. I understand some things aren't in the right octave, but I still think it sounds perfectly acceptable.

guest
You may want to rate the tab now too:
select rating
Wanna post a correction for this tab? Suggest correction