Oops, an error
Loading. Please wait.

Open Your Eyes bass

version 2
version 2

Whole song

Interactive

by Staind
751 views 1 this week
no commentswrite comment
1 2 3 4 5
2 more votes to show rating
add to favorites
×
Save as Personal and add changes to this tab that will be seen only by you. Learn more ›
×
You can save this tab as Personal to edit and correct it or add notes. All changes will be seen only by you. Learn more »
launch autoscroll
font size
0
reset
guitar tuner
edit
Autoscroll
slow
fast
+/-
esc
set tempo
stop
Author
Difficulty
Staind - Open your eyes
Album: Break The Cycle

bass tab

by : doky 2007
taquilleros_de_sudamerica_maroyu_el_grupo_tropical_del_momento@hotmail.com

5-stringed bass
G D A E B

   INTRO/BREAK 1
G-|------------|
D-|------------|
A-|------------|
E-|-6-6-96-4-6-|
B-|------------|
                                                                              

   CORO
G-|--------------*-----------|-------|---------------|
D-|--------------*-----------|-------|---------------|
A-|--------------*-4h6---4h6-|-------|---------------|
E-|-2-2-44-------*-----4-----|-------|-2h4-4---4h6-6-|
B-|-------4----4-*-----------|-------|-------4-------|
       *A*                     *A* +                                           

   VERSO
G-|--------------------------|
D-|--------------------------|
A-|--------------------------|
E-|-66---46----------------4-|
B-|-----------2---4---4446---|
                                                                              

   MIDDLE
G-|---------------------------|
D-|---------------------------|
A-|--------------------7h9-99-|
E-|-----4---4------9----------|
B-|-2-----2---2-/7---7--------|
                                                                              

   BREAK 2
G-|-------------|
D-|-------------|
A-|-------------|
E-|---6-----7---|
B-|-4---4-5---5-|
                                                                              

Les mando salutaciones a la banda que hice el año pasado y que no dio resultado
y tampoco tenia nombre:
Ranas: 1ra guitarra
Chuper: 2da Guitarra
Pablo: Voz
Rynner: Bateria
yo tocaba el bajo en ese tiempo, y no se pudo ensayar porque empezo a fallar el baterista
que no podia ir a los ensayos por falta de tiempo o algo asi.

doky2007

            
            
Suggest correction
Creating personal tab
Creating personal tab
You can edit any tab online and save it as your Personal.

You can edit, replace or remove any tab part or add personal notes – all changes will be seen only by you.

Personal tabs can be accessed anytime from any device, even offline.
Learn more »
Give kudos to tab author, rate the tab!
1 2 3 4 5
comments
print report bad tab
guest
You may want to rate the tab now too:
select rating
Wanna post a correction for this tab? Suggest correction