Oops, an error
Loading. Please wait.
We have an official Outside tab made by UG professional guitarists. Check out the tab »
×
by Staind
6,628 views 6 this week
no commentswrite comment
1 2 3 4 5
2 more votes to show rating
add to favorites
×
Save as Personal and add changes to this tab that will be seen only by you. Learn more ›
×
You can save this tab as Personal to edit and correct it or add notes. All changes will be seen only by you. Learn more »
launch autoscroll
font size
0
reset
guitar tuner
backing track
0:00
0:00
edit
Autoscroll
slow
fast
+/-
esc
set tempo
stop
Author
Difficulty
Staind - Outside
Album: Break The Cycle

bass tab

by : doky 2007
taquilleros_de_sudamerica_maroyu_el_grupo_tropical_del_momento@hotmail.com

5-stringed bass
G D A E B

   VERSO
G-|----------------------------------------|
D-|----------------------------------------|
A-|----------------------------------------|
E-|-11-11-11-11--9-9-9-9-------------------|
B-|-----------------------7-7-7-7--9-9-9-9-|
                                                                              

   CORO
G-|---------------------|
D-|---------------------|
A-|---------------------|
E-|-----------9999------|
B-|-4444-7777------9999-|
                                                                              

   BREAK/MIDDLE
G-|---------------------|--------------|---------------------|
D-|---------------------|--------------|---------------------|
A-|---------------------|--------------|---------------------|
E-|------9999-----------|--------------|---------------------|
B-|-4444------7777-9999-|--------------|-4444-2222-7777-9999-|
                          o puede ser                                          

   FIN
G-|----------------------|
D-|----------------------|
A-|----------------------|
E-|-11----9--------------|
B-|------------7----9----|
                                                                              
Les mando muchas congratulaciones Al Chuper, a La Yarit, a La Daky y a La Andy porque me acuerdo que
el 2005 hemos ido a rebentar una casita de stege y cuando llegamos a un lugar medio tara no mas, asi lejos
estabamos poniendo la matasuegra en la casa y no encendia pues. entonces nos estabamos yendo hacia el auto
cuando de repente aparecieron unos pacos en sus motos y nos revisaron pues, a lo tara, y todos nos
asustamos a lo llama, uuuutha, pero no nos dijeron nada mas y se fueron.

doky2007

            
            
Suggest correction
Creating personal tab
Creating personal tab
You can edit any tab online and save it as your Personal.

You can edit, replace or remove any tab part or add personal notes – all changes will be seen only by you.

Personal tabs can be accessed anytime from any device, even offline.
Learn more »
Give kudos to tab author, rate the tab!
1 2 3 4 5
comments
print report bad tab
guest
You may want to rate the tab now too:
select rating
Wanna post a correction for this tab? Suggest correction