Oops, an error
Loading. Please wait.
We have an official Outside tab made by UG professional guitarists. Check out the tab »
×

Outside tab

by Staind
701 views 1 this week
no commentswrite comment
1 2 3 4 5
1 last vote to show rating
add to favorites
×
Save as Personal and add changes to this tab that will be seen only by you. Learn more ›
×
You can save this tab as Personal to edit and correct it or add notes. All changes will be seen only by you. Learn more »
launch autoscroll
font size
0
reset
how to read this tab
guitar tuner
backing track
0:00
0:00
edit
Autoscroll
slow
fast
+/-
esc
set tempo
stop
-------------------------------------------------------------------------------
                             Outside - Staind
-------------------------------------------------------------------------------
Tabbed by:Kevin
E-mail: Blasherk@yahoo.com 

Hey this is my first tab and is 100% correct, This is how Mike Mushok plays this song note for note.
The Verse for this song is basically pretty straight forward and is mostly quarter notes, the chorus 
on the other hand is quite a bit tricky to play and hard to hear all the notes to get the timing down
so give the song a listen a couple times before playing! This song is also tabbed out for a normal 6 String
guitar as Mike uses a PRS Baritone Guitar,

Tuning: Drop Db C#G#C#F#A#D#

Intro to the song is played like this only once, then you play the part below 4 times
Verse - Play This only 1 Time
D#|-----------------------------------------------------------------|
A#|---------13---------------12---------------10----12--------------|
F#|-16--16----16-----14--14----14--14-----12----12----12-------12---|
C#|---14--14----14-----14--14----14-----12--12----12-------9h10--10-|
G#|-----------------------------------------------------------------|
C#|-----------------------------------------------------------------|


Verse - Play This 4 Times
D#|---------------------------------------------------------------------|-----------------------------------|
A#|---------13---------------12---------------10----12-------------10---|-----------------------------------|
F#|-16--16----16-----14--14----14--14-----12----12----12-------12----12-|--last time before chorus play like|
C#|---14--14----14-----14--14----14-----12--12----12-------9h10--10-----|--the part above-------------------|
G#|---------------------------------------------------------------------|-----------------------------------|
C#|---------------------------------------------------------------------|-----------------------------------|

Chorus (With heavy distortion)
D#|-------------------------------------------------x2|--------------------------------|
A#|-------------------------------------------------x2|--------------------------------|
F#|-------------------------------------------------x2|--------------------------------|
C#|-12\7--77-----12-9-10------------------10--------x2|-12\7-----------------12-9-10---|
G#|-12\7--77---10--------5-5--55--12---12---12-10-8-x2|-12\7--77-10\5--55--10----------|
C#|-12\7--77---10--------5-5--55--12--0--0----------x2|-12\7--77-10\5- 55--10----------|
 
 *Hold on the 10 and pick the 12 9 10
 *On the 12, slide to 7 then strum it!

 Verse - Play This 4 Times
D#|---------------------------------------------------------------------|-----------------------------------|
A#|---------13---------------12---------------10----12-------------10---|-----------------------------------|
F#|-16--16----16-----14--14----14--14-----12----12----12-------12----12-|last time before chorus play it----|
C#|---14--14----14-----14--14----14-----12--12----12-------9h10--10-----|like the intro part----------------|
G#|---------------------------------------------------------------------|-----------------------------------|
C#|---------------------------------------------------------------------|-----------------------------------|


2nd Chorus (With heavy distortion)                     Last time on chorus use light distortion
D#|-------------------------------------------------x2|-------------------------------------------------x3|
A#|-------------------------------------------------x2|-------------------------------------------------x3|
F#|-------------------------------------------------x2|-------------------------------------------------x3|
C#|-12\7--77-----12-9-10------------------10--------x2|-12\7-----------------12-9-10--12------10--------x3|
G#|-12\7--77---10--------5-5--55--12---12---12-10-8-x2|-12\7--77-10\5--55--10---------12---12---12-10-8-x3|
C#|-12\7--77---10--------5-5--55--12--0--0----------x2|-12\7--77-10\5- 55--10---------12--0--0----------x3|
 
Verse
D#|-----------------------------------------------------------------|
A#|---------13---------------12---------------10----12--------------| This is the end of the song for Mike's 
F#|-16--16----16-----14--14----14--14-----12----12----12-------12---| Part, Aaron finish's the end with 
C#|---14--14----14-----14--14----14-----12--12----12-------9h10--10-| strumming on his acoustic guitar
G#|-----------------------------------------------------------------|
C#|-----------------------------------------------------------------|

**Octave Line During 2nd Chorus**
D#|xxxxxxxxxxxxxxxxxxxxxxxxxxxxxxxxxxxxxxxxxxxxxxxxxxxxxxxxxxxxxxxxxxxxxxxxxxx|
A#|xxxxxxxxxxxxxxxxxxxxxxxxxxxxxxxxxxxxxxxxxxxxxxxxxxxxxxxxxxxxxxxxxxxxxxxxxxx|
F#|-13-13-13-11-13-14-7-12-9-7-9-7-12-9-7-9-----------------------------------|
C#|xxxxxxxxxxxxxxxxxxxxxxxxxxxxxxxxxxxxxxxxxxxxxxxxxxxxxxxxxxxxxxxxxxxxxxxxxxx|
G#|-11-11-11-9--11-12-5-10-7-5-7-5-10-7-5-7-----------------------------------|
C#|xxxxxxxxxxxxxxxxxxxxxxxxxxxxxxxxxxxxxxxxxxxxxxxxxxxxxxxxxxxxxxxxxxxxxxxxxxx|

This is the whole song for Mike's Part, Be sure to rate this rate this tab 5 Stars up!

************************************

| /   slide up
| \   slide down
| h   hammer-on
| p   pull-off
| ~   vibrato
| +   harmonic
| x   Mute note
| b   Bend
| pb  Pre-bend
| br  Bend release
| pbr Pre-bend release
| brb Bend release bend

************************************

            
            
Suggest correction
Creating personal tab
Creating personal tab
You can edit any tab online and save it as your Personal.

You can edit, replace or remove any tab part or add personal notes – all changes will be seen only by you.

Personal tabs can be accessed anytime from any device, even offline.
Learn more »
Give kudos to tab author, rate the tab!
1 2 3 4 5
comments
print report bad tab
guest
You may want to rate the tab now too:
select rating
Wanna post a correction for this tab? Suggest correction