Oops, an error
Loading. Please wait.

Right Here tab

version 1
version 1

Whole song

Interactive

by Staind
38,469 views 27 this week
13 commentsread comments
1 2 3 4 5
x 18
add to favorites
×
Save as Personal and add changes to this tab that will be seen only by you. Learn more ›
×
You can save this tab as Personal to edit and correct it or add notes. All changes will be seen only by you. Learn more »
launch autoscroll
font size
0
reset
how to read this tab
guitar tuner
backing track
0:00
0:00
edit
Autoscroll
slow
fast
+/-
esc
set tempo
stop
[Chords]
Ed,Ad,Dd,Gd,Bd,Ed

[Intro]
D#|-------0----2---2p0--------------0---0---0---------------0------------|
A#|--------------------0-------------------------------------------------|
F#|---4-----4----4--------------2-----2---2---2--------------------------|
C#|-----4----------------4--------2-------------2--------5----5----------|
G#|-2-------------------------0-------------------0----5--------5--------|
D#|--------------------------------------------------3------------3------|

D#|-----------------------------0---0------------------------------------|
A#|----------------------------------------------------------------------|
F#|----------------------------------------------------------------------|
C#|-----4-----------7---------9---9--------------------------------------|
G#|---4---4-------7---7-----9--------------------------------------------|
D#|-2---------2/5---------7----------------------------------------------|

[Verse]
D#|--------------|
A#|--------------|
F#|--------------|
C#|--------------|
G#|--5555h7------|
D#|--------------|

[Chorus]
D#|------------------------------------------------|
A#|------------------------------------------------|
F#|--7--77777------------4--44444------------------|
C#|--7--77777--4--44444--4--44444--5--55555--------|
G#|--5--55555--4--44444--2--22222--5--55555--------|
D#|------------2--22222------------3--33333--------|

[Intro is played throughout the 2nd Verse]
D#|-------0----2---2p0--------------0---0---0---------------0------------|
A#|--------------------0-------------------------------------------------|
F#|---4-----4----4--------------2-----2---2---2--------------------------|
C#|-----4----------------4--------2-------------2--------5----5----------|
G#|-2-------------------------0-------------------0----5--------5--------|
D#|--------------------------------------------------3------------3------|

D#|-----------------------------0---0------------------------------------|
A#|----------------------------------------------------------------------|
F#|----------------------------------------------------------------------|
C#|-----4-----------7---------9---9--------------------------------------|
G#|---4---4-------7---7-----9--------------------------------------------|
D#|-2---------2/5---------7----------------------------------------------|

[This is also played thru the 2nd Verse]
D#|--------------|
A#|--------------|
F#|--------------|
C#|--------------|
G#|--5555h7------|
D#|--------------|

[Chorus]
D#|------------------------------------------------|
A#|------------------------------------------------|
F#|--7--77777------------4--44444------------------|
C#|--7--77777--4--44444--4--44444--5--55555--------|
G#|--5--55555--4--44444--2--22222--5--55555--------|
D#|------------2--22222------------3--33333--------|

[Bridge]
D#|--------|
A#|--------|
F#|-444----|
C#|-444-5--|x8
G#|-222-5--|
D#|-----3--|
Ive made a commitment...

[Interlude]
D#|-------0----2---2p0--------------0---0---0---------------0------------|
A#|--------------------0-------------------------------------------------|
F#|---4-----4----4--------------2-----2---2---2--------------------------|
C#|-----4----------------4--------2-------------2--------5----5----------|
G#|-2-------------------------0-------------------0----5--------5--------|
D#|--------------------------------------------------3------------3------|

D#|-----------------------------0---0------------------------------------|
A#|----------------------------------------------------------------------|
F#|----------------------------------------------------------------------|
C#|-----4-----------7---------9---9--------------------------------------|
G#|---4---4-------7---7-----9--------------------------------------------|
D#|-2---------2/5---------7----------------------------------------------|

(Why cant you jut forgive me, i dont want to relive all the mistakes ive made, alont the way...)
(End on Gd bar chord)
D#|--2-2222-----------------3-3333-|--------|
A#|--3-3333-----------------0-0000-|--------|
F#|--2-2222---------4-4444--0-0000-|--------|
C#|--0-0000-4-4444--4-4444--0-0000-|---5~---|
G#|---------4-4444--2-2222--2-2222-|---5~---|
D#|---------2-2222----------3-3333-|---3~---|
(But i always find a way...)

[Chorus]
D#|------------------------------------------------|
A#|------------------------------------------------|
F#|--7--77777------------4--44444------------------|
C#|--7--77777--4--44444--4--44444--5--55555--------|
G#|--5--55555--4--44444--2--22222--5--55555--------|
D#|------------2--22222------------3--33333--------|

[Outro]
D#|------------------|
A#|------------------|
F#|------------------|
C#|------------------|
G#|---5555h7-7-5-2-5-|
D#|------------------|

[Intro]
[Verse]
[Chorus]
[Intro]
[Verse]
[Chorus]
[Bridge]
[Interlude]
[Choruse]
[Outro]

************************************

| p  Pull-off
| /  Slide up
| h  Hammer-on
| ~  Vibrato

************************************

            
            
Suggest correction
Creating personal tab
Creating personal tab
You can edit any tab online and save it as your Personal.

You can edit, replace or remove any tab part or add personal notes – all changes will be seen only by you.

Personal tabs can be accessed anytime from any device, even offline.
Learn more »
comments
print report bad tab
13 comments total. Showing first comments.
0 reply
mattedee 87 Aug 10, 2005 08:00 PM

great tab, i did one like this, except the idiots havent posted it yet. i wrote it almost 4 weeks ago...

0 reply
metal_man696 10 Aug 17, 2005 08:00 PM

im wondering what tuning do they use? cause i was looking at my new guitar world mag and it showed the other guitarist and he tunes down like 5 steps and a half step? so can someone let me know.

+1 reply
Mr_Big_David 10 Aug 18, 2005 08:00 PM

Ok, Staind uses like 2 tunings. Arron uses Halfstep from Standerd and the the other guitarist usually uses drop A, A# or B#. Thats almost always how it works. Arron doesn't like useing power cords, or so he says in his interviews. So they harmonize the power cords with the real cords. Well you know what I mean. This is proof of it all. lol. Same with So Far Away and Zoe Jane. The other guitarist whos name I cannot remember right off the top of my head for some odd reason. Is a big time fan of low tuning. Examples: For You, and just about other Staind songs. lol Thats just how things work. They use in this song Halfstep and mostlikly A# but not meany people will tune their guitars that low to tab it out. lol.
Anyways great tab man! It is perfection! Betcha the book is going to say almost the exact same thing. You did the best.

guest
You may want to rate the tab now too:
select rating
Wanna post a correction for this tab? Suggest correction