Oops, an error
Loading. Please wait.

Safe Place bass

by Staind
323 views 1 this week
no commentswrite comment
1 2 3 4 5
1 last vote to show rating
add to favorites
×
Save as Personal and add changes to this tab that will be seen only by you. Learn more ›
×
You can save this tab as Personal to edit and correct it or add notes. All changes will be seen only by you. Learn more »
launch autoscroll
font size
0
reset
guitar tuner
edit
Autoscroll
slow
fast
+/-
esc
set tempo
stop
Intro
G/--------------------------------------------------------|
D/-----------3-1------------------------------------------|
A/---------------1----------2h3p2------3-1----------------|
E/---6--6h8----------6—6h8----------6------1—2h3p2--6—6h8-|


Pre - Chorus
G/--------------------------------------------------------|
D/--------------------------------------------------------|
A/---5-5h7—9p7--------------------------------------------|
E/--------------7-7-5---3-0-2-----------------------------|

Chorus
G/--------------------------------------------------------|
D/--------------------------------------------------------|
A/------—-------------------------------------------------|
E/---0-0-5-3---3-3---0-0-5-3---3-1------------------------|

1st Verse
G/---------------------------------------------------------|
D/----------------9p7----------------1-3-------------------|
A/------—----7h8-------5—5p3-------------------------------|
E/---6—6h8-------------------3---1-1------2h3p2------------|
               ^   ^   ^
I pop these hammer - ons

2nd Verse
G/--------------------------------------------------------|
D/--------------------------------------------------------|
A/------—---------------6h8p6-/-2h3p2---------------------|
E/---6-6h8---2h3p2---6----------------3---7p5---2h3p2-----|
                             ^ I add the slide, it sounds a bit better to me
Solo
G/--------------------------------------------------------|
D/--------------------------------------------------------|
A/------—-------------------------------------------------|
E/---5-5-5---5-5-6-5---3-3-3-0-3-5-3----------------------|



Post Solo
G/--------------------------------------------------------|
D/--------------------------------------------------------|
A/------—-------------------------------------------------|
E/---6-6h8---5-5-5-3---4p3h4-/-2h3p2-0---6h8---6-6p4------|
                             ^ Again, my little addition

G/---------------------------------------------------------|
D/---------------------------------------------------------|
A/------—--------------------------------------------------|
E/---6-6h8---6-6-6-3---6h8---3h4p3---6-6h8---6-6-6-3---6h8-|

Fill
G/--------------------------------------------------------|
D/--------------------------------------------------------|
A/------—-------------------------------------------------|
E/---5-5-5---6h8---5-5-5---5-5----------------------------|


Structure

Intro x1
Pre – Chorus x4
1st Verse x1
Pre – Chorus x1
Fill x3
Chorus x4
2nd Verse x1
Pre – Chorus x1
Chorus x4
Solo x4
Post – Solo x1
Chorus x4
Outro x1

I like to add little things here and there, like some low hammer - ons or slides when 
i play this with my band.  Listen to the song to get the timing.  
Enjoy.  Please comment.  Dicamillorokz@aol.com

            
            
Suggest correction
Creating personal tab
Creating personal tab
You can edit any tab online and save it as your Personal.

You can edit, replace or remove any tab part or add personal notes – all changes will be seen only by you.

Personal tabs can be accessed anytime from any device, even offline.
Learn more »
Give kudos to tab author, rate the tab!
1 2 3 4 5
comments
print report bad tab
guest
Wanna post a correction for this tab? Suggest correction