Oops, an error
Loading. Please wait.
We have an official So Far Away tab made by UG professional guitarists. Check out the tab »
×

So Far Away tab

by Staind
3,751 views 1 this week
7 commentsread comments
1 2 3 4 5
x 5
add to favorites
×
Save as Personal and add changes to this tab that will be seen only by you. Learn more ›
×
You can save this tab as Personal to edit and correct it or add notes. All changes will be seen only by you. Learn more »
launch autoscroll
font size
0
reset
how to read this tab
guitar tuner
edit
Autoscroll
slow
fast
+/-
esc
set tempo
stop
Author
Tunning: Half a step down (eb Ab Db Gb Bb Eb)
Comment: thinhle@ufl.edu
I think this is as accurate as it gets unless you get the official tab book.
Feel free to comment. Thanks.

Intro/Verse:
|-7-------7-8-------8-10--------10-5--------|
|----8--8------8--8-------8--8--------7--8--|
|-------------------------------------------|
|-------------------------------------------|
|-------------------------------------------|
|-------------------------------------------|

Intro 4x
Verse 4x

then...
Eb -8-------8-8-------8-8-------8-5-
Bb ----8--8------8--8------8--8-----
Gb ---------------------------------
Db ---------------------------------
Ab ---------------------------------
eb ---------------------------------

Chorus:	

  G5	D5	E5	C5
Eb ---	---	---	---
Bb ---	---	---	---
Gb ---	-7-	-9-	-5-
Db -5-	-7-	-9-	-5-
Ab -5-	-5-	-7-	-3-
eb -3-	---	---	---  4x

Repeat 4x:
|-7-------7-8-------8-10--------10-5--------|
|----8--8------8--8-------8--8--------7--8--|
|-------------------------------------------|
|-------------------------------------------|
|-------------------------------------------|
|-------------------------------------------|

then...
Eb -8-------8-8-------8-8-------8-5-
Bb ----8--8------8--8------8--8-----
Gb ---------------------------------
Db ---------------------------------
Ab ---------------------------------
eb ---------------------------------

Repeat Chorus 4x

Bridge:
E5	G5	D5	G5   x4

Repeat Chorus 4x

-------------------------------------
Here are the lyrics:

Verse I: 
this is my life
its not what it was before
all these feelings i've shared
and these are my dreams
that i'd never lived before
somebody shake me
cuz i 
i must be sleeping

chorus:
now that we're here,
it's so far away
all the struggle we thought was in vain
all in the mistakes,
one life contained
they all finally start to go away
now that we're here its so far away
and i feel like i can face the day i can forgive
and i'm not ashambed to be the person that i am today

Verse II:
these are my words
that i've never said before
i think i'm doing okay
and this is the smile 
that i've never shown before
somebody shake me cuz i
i must be sleeping

[chorus]

Bridge:
i'm so afraid of waking
please don't shake me
afraid of waking
please don't shake me

            
            
Suggest correction
Creating personal tab
Creating personal tab
You can edit any tab online and save it as your Personal.

You can edit, replace or remove any tab part or add personal notes – all changes will be seen only by you.

Personal tabs can be accessed anytime from any device, even offline.
Learn more »
comments
print report bad tab
7 comments total. Showing first comments.
0 reply
thinhle 30 May 28, 2003 08:00 PM

I forgot to add the 2nd guitar part during the intro and the verses... well here it is:

The 2nd guitar just pick these chords:
G5 C5 G5 A5
--- --- --- ---
--- --- --- ---
--- -5- --- ---
-5- -5- -5- -7-
-5- -3- -5- -7-
-3- --- -3- -5-

-Thinh

0 reply
shawny963 10 Jul 08, 2003 08:00 PM

i believe the intro goes like this:

6-6-6-6--7-7-7-7--8-8-8-8---4-4-4-4
--6-6-6----7-7-7----8-8-8-----4-4-4
--7-7-7----8-8-8----9-9-9-----5-5-5
--8-8-8----9-9-9----101010----6-6-6
--8-8-8----9-9-9----101010----6-6-6
--6-6-6----7-7-7----8-8-8-----4-4-4

0 reply
Broken Sound 10 Jul 08, 2003 08:00 PM

dude shawny the intro is not chords but on this tab the intro is close for some reason it doesnt sound right maby its just me

guest
You may want to rate the tab now too:
select rating
Wanna post a correction for this tab? Suggest correction