Oops, an error
Loading. Please wait.

Something To Remind You Tab

version 1
version 1

Acoustic

  • I play it in capo 1 instead of detune my guit in d... Show more

Whole song

Interactive

124 views 3 this week
no commentswrite comment
1 2 3 4 5
3 more votes to show rating
add to favorites
launch autoscroll
font size
0
reset
how to read this tab
guitar tuner
Autoscroll
slow
fast
+/-
esc
set tempo
stop
Help us to improve Ultimate-Guitar.com Take our survey!
×
Author
Difficulty
Capo
intermediate
1st fret
About this tab version
I play it in capo 1 instead of detune my guit in d#, In tune whit the original song. Was this info helpful? Yes No
Capo 1

[Tab intro and verse and outro]
    Am                                G             
e|-----1---1---1-|------1---1---1-|------------------|---------------|
B|-------0---0---|--------0---0---|--------3---3---3-|----3---3---3--|
G|---------------|----------------|----------0---0---|-------0--0----|
D|---------------|----------------|------------------|---------------|
A|--0------------|-0--------------|------------------|---------------|
E|---------------|----------------|---3--------------|-3-------------|
 
    F                                 E                 (E)
e|-----1---1---1-|------1---1---1-|-------------------|--0-----------|
B|-------1---1---|--------1---1---|--------3---3----3-|-----3--1--0--|
G|---------------|----------------|----------4---4----|--------------|
D|---------------|----------------|-------------------|--------------|
A|---------------|----------------|-------------------|--------------|
E|-1-------------|-1--------------|---0---------------|--------------| 
    

[Verse]
  Am                                G             
e|-----1---1---1-|------1---1---1-|------------------|---------------|
B|-------0---0---|--------0---0---|--------3---3---3-|----3---3---3--|
G|---------------|----------------|----------0---0---|-------0--0----|
D|---------------|----------------|------------------|---------------|
A|--0------------|-0--------------|------------------|---------------|
E|---------------|----------------|---3--------------|-3-------------|
 
   F                                  E                 (E)
e|-----1---1---1-|------1---1---1-|-------------------|--0-----------|
B|-------1---1---|--------1---1---|--------3---3----3-|-----3--1--0--|
G|---------------|----------------|----------4---4----|--------------|
D|---------------|----------------|-------------------|--------------|
A|---------------|----------------|-------------------|--------------|
E|-1-------------|-1--------------|---0---------------|--------------|
 
           Am     G
So this is it, I say goodbye
         F                       E
To this chapter of my ever changing life
            Am              G
And there's mistakes, the path is long
        F                                E
And I'm sure I'll answer for them when I'm gone

        
[Tab Pre-chorus]
    F                                C
e|-----1---1---1-|------1---1---1-|----------------|---------------|
B|-------1---1---|--------1---1---|------1---1---1-|----1---1---1--|
G|---------------|----------------|--------2---2---|------2---2----|
D|---------------|----------------|----------------|---------------|
A|---------------|----------------|-3--------------|-3-------------|
E|-1-------------|-1--------------|----------------|---------------|

    Dm                              E
e|---------------|---------------|-----------------|-0-------------|    
B|---------------|---------------|-----------------|----3---1---0--|
G|---------------|---------------|-------3---3---3-|---------------|
D|-----2---2---2-|-----2---2---2-|---------4---4---|---------------|
A|-0-----3---3---|--0----3---3---|-----------------|---------------|
E|---------------|---------------|-0---------------|---------------|

F                                 C
 So when the day comes in and the sun won't touch my face
Dm                                    E                     (E)
Tell the ones who cared enough that I finally left this place



[Tab chorus]
     Am                              G             
E|-----------------------------|-----------------------------------|
B|---------0---1----1---1---0--|-------------------1----1---1--0---|
G|-----2-----------------------|--------0---2---0------------------|
D|-------2---2---2-------------|----------0---0------0-------------|
A|--0--------------------------|-----------------------------------|
E|-----------------------------|--3--------------------------------|

    F                              G
e|-----------------------------|-----------------------------------|
B|---------------1---1--1--0---|-------------------1---1---1---0---|
G|----------0------------------|-------0---2----0------------------|
D|-----3-----------------------|---------0---0-------0-------------|
A|--------3---3----3-----------|-----------------------------------|
E|-1---------------------------|--3--------------------------------|
     Am                              G             
e|-----------------------------|-----------------------------------|
B|---------0---1----1---1---0--|------------------1----1---1--0----|
G|-----2-----------------------|-------0---2---0-------------------|
D|-------2---2---2-------------|---------0---0------0--------------|
A|--0--------------------------|-----------------------------------|
E|-----------------------------|--3--------------------------------|

    F                              G
e|-----------------------------|-----------------------------------|
B|---------------1---1--1--0---|-------------------1---1---1---0---|
G|----------0------------------|-------0---2----0------------------|
D|-----3-----------------------|---------0---0-------0-------------|
A|--------3---3----3-----------|-----------------------------------|
E|-1---------------------------|--3--------------------------------|

    Am                              G             
e|-----------------------------|-----------------------------------|
B|---------0---1----1---1---0--|------------------1----1---1--0----|
G|-----2-----------------------|-------0---2---0-------------------|
D|-------2---2---2-------------|---------0---0------0--------------|
A|--0--------------------------|-----------------------------------|
E|-----------------------------|--3--------------------------------|

   F                              E
E|-----------------------------|-----------------------------------|
B|---------------1---1--1--0---|-----------0---1---1---1---0-------|
G|----------0------------------|------1----------------------------|
D|-----3-----------------------|---------2---2---2-----------------|
A|--------3---3----3-----------|-----------------------------------|
E|-1---------------------------|--0--------------------------------|

               Am               G
That's been so cold, look at my face
         F                           G
All the stories it will tell I can't erase
           Am              G
The road is long, just one more song
   F                 G   -                Am 
little something to remind you when I'm gone
F- >let ring  Am   G   F   E
When I'm      gone


[Verse #2]
    Am                                G             
e|-----1---1---1-|------1---1---1-|------------------|---------------|
B|-------0---0---|--------0---0---|--------3---3---3-|----3---3---3--|
G|---------------|----------------|----------0---0---|-------0--0----|
D|---------------|----------------|------------------|---------------|
A|--0------------|-0--------------|------------------|---------------|
E|---------------|----------------|---3--------------|-3-------------|
 
   F                                 E                  (E)
e|-----1---1---1-|------1---1---1-|-------------------|--0-----------|
B|-------1---1---|--------1---1---|--------3---3----3-|-----3--1--0--|
G|---------------|----------------|----------4---4----|--------------|
D|---------------|----------------|-------------------|--------------|
A|---------------|----------------|-------------------|--------------|
E|-1-------------|-1--------------|---0---------------|--------------| 
         Am           G
The road to hell along the way
   F                                E
Is paved with good intentions so they say
           Am            G
And some believe that no good deed
       F                          E
Goes unpunished in the end or so it seems


[Tab Pre-chorus]

   F                                C
e|-----1---1---1-|------1---1---1-|----------------|---------------|
B|-------1---1---|--------1---1---|------1---1---1-|----1---1---1--|
G|---------------|----------------|--------2---2---|------2---2----|
D|---------------|----------------|----------------|---------------|
A|---------------|----------------|-3--------------|-3-------------|
E|-1-------------|-1--------------|----------------|---------------|

   Dm                              E
e|---------------|---------------|-----------------|-0-------------|    
B|---------------|---------------|-----------------|----3---1---0--|
G|---------------|---------------|-------3---3---3-|---------------|
D|-----2---2---2-|-----2---2---2-|---------4---4---|---------------|
A|-0-----3---3---|--0----3---3---|-----------------|---------------|
E|---------------|---------------|-0---------------|---------------|

F                                 C
 So when the day comes in and the sun won't touch my face
Dm                                    E                     (E)
Tell the ones who cared enough that I finally left this place


[Chorus]
    Am                            G             
E|-----------------------------|-----------------------------------|
B|---------0---1----1---1---0--|-------------------1----1---1--0---|
G|-----2-----------------------|--------0---2---0------------------|
D|-------2---2---2-------------|----------0---0------0-------------|
A|--0--------------------------|-----------------------------------|
E|-----------------------------|--3--------------------------------|

   F                              G
e|-----------------------------|-----------------------------------|
B|---------------1---1--1--0---|-------------------1---1---1---0---|
G|----------0------------------|-------0---2----0------------------|
D|-----3-----------------------|---------0---0-------0-------------|
A|--------3---3----3-----------|-----------------------------------|
E|-1---------------------------|--3--------------------------------|
    Am                            G             
e|-----------------------------|-----------------------------------|
B|---------0---1----1---1---0--|------------------1----1---1--0----|
G|-----2-----------------------|-------0---2---0-------------------|
D|-------2---2---2-------------|---------0---0------0--------------|
A|--0--------------------------|-----------------------------------|
E|-----------------------------|--3--------------------------------|

   F                              G
e|-----------------------------|-----------------------------------|
B|---------------1---1--1--0---|-------------------1---1---1---0---|
G|----------0------------------|-------0---2----0------------------|
D|-----3-----------------------|---------0---0-------0-------------|
A|--------3---3----3-----------|-----------------------------------|
E|-1---------------------------|--3--------------------------------|

    Am                            G             
e|-----------------------------|-----------------------------------|
B|---------0---1----1---1---0--|------------------1----1---1--0----|
G|-----2-----------------------|-------0---2---0-------------------|
D|-------2---2---2-------------|---------0---0------0--------------|
A|--0--------------------------|-----------------------------------|
E|-----------------------------|--3--------------------------------|

    F                             E
E|-----------------------------|-----------------------------------|
B|---------------1---1--1--0---|-----------0---1---1---1---0-------|
G|----------0------------------|------1----------------------------|
D|-----3-----------------------|---------2---2---2-----------------|
A|--------3---3----3-----------|-----------------------------------|
E|-1---------------------------|--0--------------------------------|

               Am               G
That's been so cold, look at my face
         F                           G
All the stories it will tell I can't erase
           Am               G
The road is long, just one more song
         F                               G   - 
 A little something to remind you when I'm gone
F- >let ring  Am   G   F   E
When I'm      gone


[Outro]
   Am                                 G             
e|-----1---1---1-|------1---1---1-|------------------|---------------|
B|-------0---0---|--------0---0---|--------3---3---3-|----3---3---3--|
G|---------------|----------------|----------0---0---|-------0--0----|
D|---------------|----------------|------------------|---------------|
A|--0------------|-0--------------|------------------|---------------|
E|---------------|----------------|---3--------------|-3-------------|
 
   F                                  E                   (E)
e|-----1---1---1-|------1---1---1-|-------------------|--0-----------|
B|-------1---1---|--------1---1---|--------3---3----3-|-----3--1--0--|
G|---------------|----------------|----------4---4----|--------------|
D|---------------|----------------|-------------------|--------------|
A|---------------|----------------|-------------------|--------------|
E|-1-------------|-1--------------|---0---------------|--------------| 

           Am     G
So this is it, I say goodbye
         F                       E
To this chapter of my ever changing life
            Am              G
And there's mistakes, the path was long
        F                                E
And I'm sure I'll answer for them when I'm gone
         Am>let ring
When I'm gone

                             MyGuyD ♪
Suggest correction
Give kudos to tab author, rate the tab!
1 2 3 4 5
comments
print report bad tab
guest
You may want to rate the tab now too:
select rating
Wanna post a correction for this tab? Suggest correction