Oops, an error
Loading. Please wait.

Something To Remind You Tab

version 1
version 1

Whole song

Interactive

112,883 views 189 this week
4 commentsread comments
1 2 3 4 5
x 40
add to favorites
launch autoscroll
font size
0
reset
how to read this tab
guitar tuner
Autoscroll
slow
fast
+/-
esc
set tempo
stop
Help us to improve Ultimate-Guitar.com Take our survey!
×
Author
Difficulty
Tuning
novice
D# G# C# F# A# D#
Artist: Staind
Title: Something To Remind You
Album: Staind
Tuning: (low to high) Eb Ab Db Gb Bb Eb

Tabbed by: FireReaverX


[Intro]

Eb|-----2---2---2-------2---2---2-------0---0---0-------0---0---0---|
Bb|-------3---3-----------3---3-----------3---3-----------3---3-----|
Gb|-4---------------4---------------2---------------2---------------|
Db|-----------------------------------------------------------------|
Ab|-----------------------------------------------------------------|
Eb|-----------------------------------------------------------------|

Eb|-----3---3---3-------3---3---3-------0---0---0---2---0-----------|
Bb|-------3---3-----------3---3-----------2---2-------------3---2---|
Gb|-0---------------0-----------------------------------------------|
Db|---------------------------------4-------------------------------|
Ab|-----------------------------------------------------------------|
Eb|-----------------------------------------------------------------|


[Verse]

Eb|-----2---2---2-------2---2---2-------0---0---0-------0---0---0---|
Bb|-------3---3-----------3---3-----------3---3-----------3---3-----|
Gb|-4---------------4---------------2---------------2---------------|
Db|-----------------------------------------------------------------|
Ab|-----------------------------------------------------------------|
Eb|-----------------------------------------------------------------|

Eb|-----3---3---3-------3---3---3-------0---0---0---2---0-----------|
Bb|-------3---3-----------3---3-----------2---2-------------3---2---|
Gb|-0---------------0-----------------------------------------------|
Db|---------------------------------4-------------------------------|
Ab|-----------------------------------------------------------------|
Eb|-----------------------------------------------------------------|

Eb|-----2---2---2-------2---2---2-------0---0---0-------0---0---0---|
Bb|-------3---3-----------3---3-----------3---3-----------3---3-----|
Gb|-4---------------4---------------2---------------2---------------|
Db|-----------------------------------------------------------------|
Ab|-----------------------------------------------------------------|
Eb|-----------------------------------------------------------------|

Eb|-----3---3---3-------3---3---3-------0---0---0---2---0---0---0---|
Bb|-------3---3-----------3---3-----------2---2-----------2---2-----|
Gb|-0---------------0-----------------------------------------------|
Db|---------------------------------4---------------4---------------|
Ab|-----------------------------------------------------------------|
Eb|-----------------------------------------------------------------|


[Pre-Chorus]

Eb|-----3---3---3-------3---3---3-----------------------------------|
Bb|-------3---3-----------3---3---------3---3---3-------3---3---3---|
Gb|-0---------------0---------------------2---2-----------2---2-----|
Db|---------------------------------0---------------0---------------|
Ab|-----------------------------------------------------------------|
Eb|-----------------------------------------------------------------|

Eb|-------------------------------------0---0---0---2---0-----------|
Bb|-----0---0---0-------0---0---0---------2---2-------------3---2---|
Gb|-------0---0-----------0---0-------------------------------------|
Db|-2---------------2---------------4-------------------------------|
Ab|-----------------------------------------------------------------|
Eb|-----------------------------------------------------------------|


[Chorus]

Eb|-------------------------------------------------------------------|
Bb|---------2-----3-----3---3-2-------------0-----3-----3---3---2-----|
Gb|-----4-------------------------------2-----------------------------|
Db|-------4-----4-----4-------------------2-----2-----2---------------|
Ab|-2-------------------------------0---------------------------------|
Eb|-------------------------------------------------------------------|

Eb|-------------------------------------------------------------------|
Bb|---------------3-----3---3-2-------------0-----3-----3---3---2-----|
Gb|-----0---2---------------------------2-----------------------------|
Db|-------0-----0-----0-------------------2-----2-----2---------------|
Ab|---------------------------------0---------------------------------|
Eb|-3-----------------------------------------------------------------|

Eb|-------------------------------------------------------------------|
Bb|---------2-----3-----3---3-2-------------0-----3-----3---3---2-----|
Gb|-----4-------------------------------2-----------------------------|
Db|-------4-----4-----4-------------------2-----2-----2---------------|
Ab|-2-------------------------------0---------------------------------|
Eb|-------------------------------------------------------------------|

Eb|-------------------------------------------------------------------|
Bb|---------------3-----3---3-2-------------0-------------------------|
Gb|-----0---2---------------------------2---------0-------------------|
Db|-------0-----0-----0-------------------2-----x-0-------------------|
Ab|---------------------------------0---------------------------------|
Eb|-3---------------------------------------------3-------------------|


Lead guitar
Eb|---------------------------10---9---------------------------10---9---|
Bb|------12---12---------12----------------10---10--------10------------|
Gb|-11--------------11-----------------9--------------9-----------------|
Db|---------------------------------------------------------------------|
Ab|---------------------------------------------------------------------|
Eb|---------------------------------------------------------------------|

Eb|----------------------10---9-----------------10---9---7--------(7)-|
Bb|-----8---8--------8----------------7---7------------------10-------|
Gb|-7------------7----------------6-----------------------------------|
Db|-------------------------------------------------------------------|
Ab|-------------------------------------------------------------------|
Eb|-------------------------------------------------------------------|


[Verse]

Eb|-----2---2---2-------2---2---2-------0---0---0-------0---0---0---|
Bb|-------3---3-----------3---3-----------3---3-----------3---3-----|
Gb|-4---------------4---------------2---------------2---------------|
Db|-----------------------------------------------------------------|
Ab|-----------------------------------------------------------------|
Eb|-----------------------------------------------------------------|

Eb|-----3---3---3-------3---3---3-------0---0---0---2---0-----------|
Bb|-------3---3-----------3---3-----------2---2-------------3---2---|
Gb|-0---------------0-----------------------------------------------|
Db|---------------------------------4-------------------------------|
Ab|-----------------------------------------------------------------|
Eb|-----------------------------------------------------------------|

Eb|-----2---2---2-------2---2---2-------0---0---0-------0---0---0---|
Bb|-------3---3-----------3---3-----------3---3-----------3---3-----|
Gb|-4---------------4---------------2---------------2---------------|
Db|-----------------------------------------------------------------|
Ab|-----------------------------------------------------------------|
Eb|-----------------------------------------------------------------|

Eb|-----3---3---3-------3---3---3-------0---0---0---2---0---0---0---|
Bb|-------3---3-----------3---3-----------2---2-----------2---2-----|
Gb|-0---------------0-----------------------------------------------|
Db|---------------------------------4---------------4---------------|
Ab|-----------------------------------------------------------------|
Eb|-----------------------------------------------------------------|


[Pre-Chorus]

Eb|-----3---3---3-------3---3---3-----------------------------------|
Bb|-------3---3-----------3---3---------3---3---3-------3---3---3---|
Gb|-0---------------0---------------------2---2-----------2---2-----|
Db|---------------------------------0---------------0---------------|
Ab|-----------------------------------------------------------------|
Eb|-----------------------------------------------------------------|

Eb|-------------------------------------0---0---0---2---0-----------|
Bb|-----0---0---0-------0---0---0---------2---2-------------3---2---|
Gb|-------0---0-----------0---0-------------------------------------|
Db|-2---------------2---------------4-------------------------------|
Ab|-----------------------------------------------------------------|
Eb|-----------------------------------------------------------------|


[Chorus]

Eb|-------------------------------------------------------------------|
Bb|---------2-----3-----3---3-2-------------0-----3-----3---3---2-----|
Gb|-----4-------------------------------2-----------------------------|
Db|-------4-----4-----4-------------------2-----2-----2---------------|
Ab|-2-------------------------------0---------------------------------|
Eb|-------------------------------------------------------------------|

Eb|-------------------------------------------------------------------|
Bb|---------------3-----3---3-2-------------0-----3-----3---3---2-----|
Gb|-----0---2---------------------------2-----------------------------|
Db|-------0-----0-----0-------------------2-----2-----2---------------|
Ab|---------------------------------0---------------------------------|
Eb|-3-----------------------------------------------------------------|

Eb|-------------------------------------------------------------------|
Bb|---------2-----3-----3---3-2-------------0-----3-----3---3---2-----|
Gb|-----4-------------------------------2-----------------------------|
Db|-------4-----4-----4-------------------2-----2-----2---------------|
Ab|-2-------------------------------0---------------------------------|
Eb|-------------------------------------------------------------------|

Eb|-------------------------------------------------------------------|
Bb|---------------3-----3---3-2-------------0-------------------------|
Gb|-----0---2---------------------------2---------0-------------------|
Db|-------0-----0-----0-------------------2-----x-0-------------------|
Ab|---------------------------------0---------------------------------|
Eb|-3---------------------------------------------3-------------------|


Lead guitar
Eb|---------------------------10---9---------------------------10---9---|
Bb|------12---12---------12----------------10---10--------10------------|
Gb|-11--------------11-----------------9--------------9-----------------|
Db|---------------------------------------------------------------------|
Ab|---------------------------------------------------------------------|
Eb|---------------------------------------------------------------------|

Eb|----------------------10---9-----------------10---9---7--------(7)-|
Bb|-----8---8--------8----------------7---7------------------10-------|
Gb|-7------------7----------------6-----------------------------------|
Db|-------------------------------------------------------------------|
Ab|-------------------------------------------------------------------|
Eb|-------------------------------------------------------------------|


Lead guitar
Eb|------------------------------------------------------------|
Bb|-------------------------------------/12-12-12-12-\10-10-\8-|
Gb|---------------7-9-9br-7---7v-------------------------------|
Db|-7/9v--------9-----------9----------------------------------|
Ab|------------------------------------------------------------|
Eb|------------------------------------------------------------|

Eb|--------------------------9h10-10-9-7-7h9-----9h10---10p9-7--------------|
Bb|-10-----8-----7-----8---------------------------------------10/12v-------|
Gb|-------------------------------------------------------------------------|
Db|-------------------------------------------------------------------------|
Ab|-------------------------------------------------------------------------|
Eb|-------------------------------------------------------------------------|


[Ending]

Eb|-----2---2---2-------2---2---2-------0---0---0-------0---0---0---|
Bb|-------3---3-----------3---3-----------3---3-----------3---3-----|
Gb|-4---------------4---------------2---------------2---------------|
Db|-----------------------------------------------------------------|
Ab|-----------------------------------------------------------------|
Eb|-----------------------------------------------------------------|

Eb|-----3---3---3-------3---3---3-------0---0---0---2---0-----------|
Bb|-------3---3-----------3---3-----------2---2-------------3---2---|
Gb|-0---------------0-----------------------------------------------|
Db|---------------------------------4-------------------------------|
Ab|-----------------------------------------------------------------|
Eb|-----------------------------------------------------------------|

Eb|-----2---2---2-------2---2---2-------0---0---0-------0---0---0---|
Bb|-------3---3-----------3---3-----------3---3-----------3---3-----|
Gb|-4---------------4---------------2---------------2---------------|
Db|-----------------------------------------------------------------|
Ab|-----------------------------------------------------------------|
Eb|-----------------------------------------------------------------|

Eb|-----3---3---3-------3---3---3-------0---0---0---2---0-----------2-----|
Bb|-------3---3-----------3---3-----------2---2-------------3---2---3-----|
Gb|-0---------------0-----------------------------------------------4-----|
Db|---------------------------------4-------------------------------4-----|
Ab|-----------------------------------------------------------------2-----|
Eb|-----------------------------------------------------------------------|


Note: The picking pattern written for the chorus is not exact to what is played on the recording.

**************************************************

| /  slide up
| \  slide down
| b  bend
| r  release bend
| h  hammer-on
| p  pull-off
| v  vibrato
| x  mute string

**************************************************
Suggest correction
comments
print report bad tab
4 comments total. Showing first comments.
0 reply
Guns&Guitars 41 Oct 29, 2011 04:25 AM

pretty good! the solo part seems just a little off. but then agian, i've only been checking out for about 2 minutes! anybody agree or disagree with me?

0 reply
Evan.S.Beard 264 Aug 08, 2012 12:19 AM

spot on man! great job :D

0 reply
King_Jack_92 10 Mar 24, 2013 09:53 AM

Nice! At first I was like "This sounds off", then I realized I forgot to tune down a half step. Sounds perfect.

guest
You may want to rate the tab now too:
select rating
Wanna post a correction for this tab? Suggest correction