Oops, an error
Loading. Please wait.

Take A Breath Tab

version 2
version 2

Whole song

1,039 views 9 this week
no commentswrite comment
1 2 3 4 5
please rate
add to favorites
launch autoscroll
font size
0
reset
how to read this tab
guitar tuner
Autoscroll
slow
fast
+/-
esc
set tempo
stop
Help us to improve Ultimate-Guitar.com Take our survey!
×
Author
Difficulty
Tuning
GNR87roxs 160
intermediate
A E A D F# B
Band: Staind
Song: Take A Breath
Album: Seven/self-titled
Tuning: high to low - Bb,Gb,Db,Ab,Eb,Ab
Transcribed by: GNR87roxs

Hey guys haven't seen anyone try to tab out this song yet. So I just went ahead and gave
it my best shot. I'm pretty sure this is almost spot on. Of course I haven't tabbed out
the solo yet, also had some fills i could figure out but enjoy the rest of the song. An 
let me know what you guys think!


Intro/Verse
Bb|--------------------|-------------------|--------------------|-----------|
Gb|-11---11---12---9---|-11---11---7---6---|-11---11---12---9---|-7---7---6-|
Db|----9----9----9---9-|----9----9---9---9-|----9----9----9---9-|---9---9---|
Ab|--------------------|-------------------|--------------------|-----------|
Eb|--------------------|-------------------|--------------------|-----------|
Ab|--------------------|-------------------|--------------------|-----------|


Pre-Chorus
Play the first section again after you play the 2nd. Then finish on the 3rd.
Bb|------------------------|-----------------------|------------------------|
Gb|------------------------|-----------------------|------------------------|
Db|------------------------|-----------------------|------------------------|
Ab|-2-x-x-x-2-2-10-10-10-9-|-7-x-x-x-7-7-5-5-5-2-2-|-7-x-x-x-7-7-7-9-9-5-2--|
Eb|-2-x-x-x-2-2-10-10-10-9-|-7-x-x-x-7-7-5-5-5-2-2-|-7-x-x-x-7-7-7-9-9-5-2--|
Ab|-2-x-x-x-2-2-10-10-10-9-|-7-x-x-x-7-7-5-5-5-2-2-|-7-x-x-x-7-7-7-9-9-5-2--|

Chorus 2x
Bb|--------------------------|----------------------|----------------------|
Gb|--------------------------|----------------------|----------------------|
Db|--------------------------|----------------------|----------------------|
Ab|10-x-x-10-x-x-x-x-10-x-10-|2-x-x-2-x-x-x-x-2-x-2-|7-x-x-7-x-x-x-x-7-x-7-|
Eb|10-x-x-10-x-x-x-x-10-x-10-|2-x-x-2-x-x-x-x-2-x-2-|7-x-x-7-x-x-x-x-7-x-7-|
Ab|10-x-x-10-x-x-x-x-10-x-10-|2-x-x-2-x-x-x-x-2-x-2-|7-x-x-7-x-x-x-x-7-x-7-|
                              End on this.
Bb|--------------------------|-----------|
Gb|--------------------------|-----------|
Db|--------------------------|-----------|
Ab|9-x-x-9-x-x-x-x-9-x-9-----|7-9-9-7-2--|
Eb|9-x-x-9-x-x-x-x-9-x-9-----|7-9-9-7-2--|
Ab|9-x-x-9-x-x-x-x-9-x-9-----|7-9-9-7-2--|

Solos rhythm Just basically the pre chrous.
Bb|------------------------|-----------------------|------------------------|
Gb|------------------------|-----------------------|------------------------|
Db|------------------------|-----------------------|------------------------|
Ab|-2-x-x-x-2-2-10-10-10-9-|-7-x-x-x-7-7-5-5-5-2-2-|-7-x-x-x-7-7-7-9-9-5-2--|
Eb|-2-x-x-x-2-2-10-10-10-9-|-7-x-x-x-7-7-5-5-5-2-2-|-7-x-x-x-7-7-7-9-9-5-2--|
Ab|-2-x-x-x-2-2-10-10-10-9-|-7-x-x-x-7-7-5-5-5-2-2-|-7-x-x-x-7-7-7-9-9-5-2--|

Outro
Bb|------------------------|-----------------------|------------------------|
Gb|------------------------|-----------------------|------------------------|
Db|------------------------|-----------------------|------------------------|
Ab|-2-x-x-x-2-2-10-10-10-9-|-7-x-x-x-7-7-5-5-5-2-2-|-7-x-x-x-7-7-7-9-9-5-2--|
Eb|-2-x-x-x-2-2-10-10-10-9-|-7-x-x-x-7-7-5-5-5-2-2-|-7-x-x-x-7-7-7-9-9-5-2--|
Ab|-2-x-x-x-2-2-10-10-10-9-|-7-x-x-x-7-7-5-5-5-2-2-|-7-x-x-x-7-7-7-9-9-5-2--|
Suggest correction new What's this?
You can suggest a correction to this tab. Community and Mods will review your correction and vote to approve or reject it.
comments
We did not receive enough feedback on this tab! Please rate:
print report bad tab
1 2 3 4 5
guest
You may want to rate the tab now too:
select rating
Please do not post tabs as comments. Select "correction" instead!