Oops, an error
Loading. Please wait.

The Corner tab

version 3
version 3

Whole song

Interactive

by Staind
361 views 3 this week
3 commentsread comments
1 2 3 4 5
x 3
add to favorites
×
Save as Personal and add changes to this tab that will be seen only by you. Learn more ›
×
You can save this tab as Personal to edit and correct it or add notes. All changes will be seen only by you. Learn more »
launch autoscroll
font size
0
reset
how to read this tab
guitar tuner
edit
Autoscroll
slow
fast
+/-
esc
set tempo
stop
-------------------------------------------------------------------------------
                             The Corner - Staind
-------------------------------------------------------------------------------
Tabbed by: K Money
E-mail: Blasherk@yahoo.com

This is tab is 100% correct

This tab is 100% correct and is the exact way it is played on the record! Rate This Tab up 5 Star!

String Numbers
         6 5  4  3  2  1
Tuning: C# G# C# G# C# F# (Tuned to Dsus down 1/2 step)

ATTENTION! STRING 3 IS TUNED UP 1/2 STEP, STRINGS 2 AND 1 ARE TUNED 1.5 STEPS UP!!!

VERSE
F#|--------------------------------------------------------------------------------------------|
C#|-------2-----------2-----------0-----------0------------------------------------------------|
G#|-----5---5-------5---5-------3---3-------3---3----------------------------------------------|
C#|---3-------3---3-------3---3-------3---3-------3--------------------------------------------|
G#|-5-----------5-----------1-----------1------------After This Just Repeat The 5352 Again!----|
C#|--------------------------------------------------------------------------------------------|

Chorus
F#|--------------------------------------------------------------------------------------------|
C#|-------5-----------5----------0----------0---------3-----------3-----------0--------0-------|
G#|-----8---8-------8---8------7---7------7--7------5---5-------5---5-------3---3-----3-3------|
C#|---7-------7---7------7---5------5---5------5--3-------3---3-------3---3-------3--3---3-----|
G#|-8-----------8----------7----------7---------5-----------5-----------1-----------1----Repeat|
C#|--------------------------------------------------------------------------------------------|

VERSE 2 (Day's Go By....)
F#|--------------------------------------------------------------------------------------------|
C#|-------2-----------2-----------0-----------0------------------------------------------------|
G#|-----5---5-------5---5-------3---3-------3---3----------------------------------------------|
C#|---3-------3---3-------3---3-------3---3-------3--------------------------------------------|
G#|-5-----------5-----------1-----------1------------After This Just Repeat The 5352 Again!----|
C#|--------------------------------------------------------------------------------------------|

Chorus 2
F#|--------------------------------------------------------------------------------------------|
C#|-------5-----------5----------0----------0----------3-----------3-----------0-------0-------|
G#|-----8---8-------8---8------7---7------7--7-------5---5-------5---5------ 3---3----3-3------|
C#|---7-------7---7------7---5------5---5------5---3-------3---3-------3---3-------3-3---3-----|
G#|-8-----------8----------7----------7----------5-----------5-----------1----------1----Repeat|
C#|--------------------------------------------------------------------------------------------|

ENDING VERSE  (You Sheltered Me From Nothing From The Weather)
F#|----------------------------------------|
C#|-------2-----------2-----------0--------|
G#|-----5---5-------5---5-------3---3------|
C#|---3-------3---3-------3---3-------3----|
G#|-5-----------5-----------1-----------1--|
C#|----------------------------------------|

**NOTE** There are a lot of big hand stretches in this song to play most of the chords!

************************************

| /   slide up
| \   slide down
| h   hammer-on
| p   pull-off
| ~   vibrato
| +   harmonic
| x   Mute note
| b   Bend
| pb  Pre-bend
| br  Bend release
| pbr Pre-bend release
| brb Bend release bend

************************************
Suggest correction
Creating personal tab
Creating personal tab
You can edit any tab online and save it as your Personal.

You can edit, replace or remove any tab part or add personal notes – all changes will be seen only by you.

Personal tabs can be accessed anytime from any device, even offline.
Learn more »
Give kudos to tab author, rate the tab!
1 2 3 4 5
comments
print report bad tab
3 comments total.
0 reply
DeadHeart7 73 Jun 27, 2015 06:26 PM

any idea what to do for the solo?

0 reply
dulebou 31 Jun 22, 2016 08:00 AM

i think there's a mistake with the second chord of the Chorus :

F#|--------------------------------------------------------------------------------------------|
C#|-------5-----------5----------0----------0---------3-----------3-----------0--------0-------|
G#|-----8---8-------8---8------7---7------7->4<-----5---5-------5---5-------3---3-----3-3------|
C#|---7-------7---7------7---5------5---5------5--3-------3---3-------3---3-------3--3---3-----|
G#|-8-----------8----------7----------7---------5-----------5-----------1-----------1----Repeat|
C#|--------------------------------------------------------------------------------------------|

guest
You may want to rate the tab now too:
select rating
Wanna post a correction for this tab? Suggest correction