Oops, an error
Loading. Please wait.

Throw It All Away tab

by Staind
4,522 views 9 this week
6 commentsread comments
1 2 3 4 5
x 3
add to favorites
×
Save as Personal and add changes to this tab that will be seen only by you. Learn more ›
×
You can save this tab as Personal to edit and correct it or add notes. All changes will be seen only by you. Learn more »
launch autoscroll
font size
0
reset
how to read this tab
guitar tuner
edit
Autoscroll
slow
fast
+/-
esc
set tempo
stop
Author
this song is repetitive for the most part, all u have to do is figure out the placings.

i fixed some muck ups so maybe this is right, if not please make a suggestion.
this SHOULD sound better but its not perfect.


Standard Tuning EADGBe

> Slide down neck
~ Vibrato
h Hammer
p Pull off

ACCIDENTALLY WROTE UPSIDE DOWN! NO TIME TO FIX!

Intro(clean) & Outro

-----6h8--6--------8~-----6h8--8--1>4--------------|
----------------6----------------------6-----6-----|
------------------------------------------8--------|
---------------------------------------------------|
---------------------------------------------------|


Intro(cont.)(overdrive)/ not outro

--6----------6--------6---------------------4--4--4----------|
-----6h8--6--------8~----6h8--8--1>4--4--4-------------------|
----------------6------------------------------------6p3--3--| X4
-------------------------------------------------------------|
-------------------------------------------------------------|
-------------------------------------------------------------|


Verse(clean)

--6----------6--------6-----------------------4-----4----------|
-----6h8--6--------8~----6h8--8--1>4-------------6-------------|
----------------6---------------------6-----6----------6p3--3--|
-----------------------------------------8---------------------|
---------------------------------------------------------------|
---------------------------------------------------------------|


--6----------6--------6------------------------4-----4---------|
-----6h8--6--------8~----6h8--8--1>4--------------6-----6------|
----------------6---------------------6-----6------------------|
-----------------------------------------8---------------------|
---------------------------------------------------------------|
---------------------------------------------------------------|


--6----------6--------6-----------------------4-----4----------|
-----6h8--6--------8~----6h8--8--1>4-------------6-------------|
----------------6---------------------6-----6----------6p3--3--|
-----------------------------------------8---------------------|
---------------------------------------------------------------|
---------------------------------------------------------------|

Pre chorus

--6----------6---------6-----------------4--4-4444-------------|
-----6h8--6--------8~-----6h8--8--4--44--6--6-6666-------------|
----------------6-----------------6--66--6--6-6666-------------|
----------------------------------6--66------------------------|
---------------------------------------------------------------|
---------------------------------------------------------------|


Chorus(overdrive)

--6----------6--------6---------------------4--4--4----------|
-----6h8--6--------8~----6h8--8--1>4--4--4-------------------|
----------------6------------------------------------6p3--3--|
-------------------------------------------------------------|
-------------------------------------------------------------|
-------------------------------------------------------------|


the extended chorus does this number i think
(......its never enough......)
-----------4444444--2222222--|
--4444444--6666666--4444444--|
--6666666--6666666--4444444--| youll hear when this comes in
--6666666--------------------| (not correct amount of strums though)
-----------------------------|
-----------------------------|

            
            
Suggest correction
Creating personal tab
Creating personal tab
You can edit any tab online and save it as your Personal.

You can edit, replace or remove any tab part or add personal notes – all changes will be seen only by you.

Personal tabs can be accessed anytime from any device, even offline.
Learn more »
Give kudos to tab author, rate the tab!
1 2 3 4 5
comments
print report bad tab
6 comments total. Showing first comments.
0 reply
guitarwiz103 51 Jun 04, 2012 05:53 AM

Sorry guys I made the tab upside down with out realizing. Will fix as soon as possible. Until then, you'll have to figure it out this way haha

0 reply
KrisBcream 175 Mar 13, 2013 02:54 PM

Besides it being upside down. It's still a good tab. 5 stars for me.

0 reply
guitarwiz103 51 Apr 15, 2013 08:21 PM

i forgot how to edit it lol

guest
You may want to rate the tab now too:
select rating
Wanna post a correction for this tab? Suggest correction