Oops, an error
Loading. Please wait.

Wannabe tab

version 1
version 1

Whole song

Interactive

by Staind
2,055 views 1 this week
2 commentsread comments
1 2 3 4 5
1 last vote to show rating
add to favorites
×
Save as Personal and add changes to this tab that will be seen only by you. Learn more ›
×
You can save this tab as Personal to edit and correct it or add notes. All changes will be seen only by you. Learn more »
launch autoscroll
font size
0
reset
how to read this tab
guitar tuner
edit
Autoscroll
slow
fast
+/-
esc
set tempo
stop
Author
-----STAIND - "WANNABE" (STAIND 2011)-----

<> - PH
~ - vibrato
h - hammer-on
p - pull-off
. - PM
trem. - tremolo pick
/ - slide up
\ - slide down
x - muted string
harm - natural harmonic
 - tapping harmonic
b - full step bend
pb - full step pre-bend
r - release bend

Tuning: Drop-Db

Intro
--------|
--------|
--------|
--------|
--------|
-<5>~~~-|


-------------------------------------------|
-------------------------------------------|
-------------------------------------------|
-10h12-------12----10-12-10-12-------------|
-10h12-12-12-12-12-10-12-10-12-13-13-13-13-|
-10h12-12-12-12-12-10-12-10-12-13-13-13-13-|
        .  .     .              .  .  .  .

-------------------------------------------|
-------------------------------------------|
-------------------------------------------|
-10h12-------12----10-12-10-12-13----------|
-10h12-12-12-12-12-10-12-10-12-13----------|
-10h12-12-12-12-12-10-12-10-12-13----------|
        .  .     .

Intro Solo
 trem.            w/fdbk.
-16---------\---|---------|
----------------|---------|
-------------2/-|-7-------|
----------------|---------|
----------------|---------|
----------------|---------|

----------------------------|-------------------|
----------------------15h18-|-18b-18b-pb18-18br-|
--------------14-15-17------|-------------------|
---------13-15--------------|-------------------|
-12-14-15-------------------|-------------------|
----------------------------|-------------------|

-------------------------------------------------|
---------15--------------------------------------|
-14-15-17--15-14-17-14---------------------------|
----------------------17-15-----<17>brp15-----15-|
---------------------------17-15---------17-15---|
-------------------------------------------------|

Verse (palm muted)/Pre-Chorus (not palm muted)
-------------------------------------------------|
-------------------------------------------------|
-------------------------------------------------|
-------------------------------------------------|
-12-12-10-12-13-12-10-12-12-12-10-12-13-12-10-12-|
-12-12-10-12-13-12-10-12-12-12-10-12-13-12-10-12-|

Chorus
-----------------|-----------------|
-----------------|-----------------|
---------------8-|---------------5-|
-8p5-5-5-8p5-5-8-|-8p5-5-5-8p5-5-5-|
-8p5-5-5-8p5-5-6-|-8p5-5-5-8p5-5-3-|
-8p5-5-5-8p5-5-6-|-8p5-5-5-8p5-5-3-|
     . .     .         . .     .

-----------------|-----------------|
-----------------|-----------------|
---------------8-|-3-------5-----7-|
-8p5-5-5-8p5-5-8-|-3-------5---x-7-|
-8p5-5-5-8p5-5-6-|-1-------3---x-5-|
-8p5-5-5-8p5-5-6-|-1-------3---x-5-|
     . .     .

Pre-Solo
Tuning: Drop Db with the A string in standard tuning
Eb------------------------------|
Bb------------------------------|
Gb------------------------------|
Db-5-7-7-7-5-7-8----------------|
A-------------5-6-6-6-6-6-6-6---|
Db------------------------------|
   harm------|. harm------------|

Solo
Tuning: Drop Db
           T    T   T
-----|------------------|
-----|-3-<19>-<15>-<10>-|
-3h5-|------------------|
-----|------------------|
-----|------------------|
-----|------------------|

---------------------------------|
---------------------------------|
-7-0-0-0-6-0-0-0-3-0-0-0-----0-5-|
------------------------<3>~~----|
---------------------------------|
---------------------------------|
                             . .

-------------------------------------------|
-------------------------------------------|
-8-5-0-7-3-0-5-2-0-3-2-0-7-3-0-3-2-0-<5>~~-|
-------------------------------------------|
-------------------------------------------|
-------------------------------------------|
 . . . . . . . . . . . . . . . . . .

                                  hold bend
--------------------------|-8b-8b-8-8-8-8-8r-|
-8------------------------|------------------|
--8-7-8-10-8-7-8--8-7-8-7-|------------------|
----------------10--------|------------------|
--------------------------|------------------|
--------------------------|------------------|
                 .
                    hold bend-|
-10-8-----------------------------|
-----11-8-11-8-8------------------|
----------------10b-10-10-10-10r\-|
----------------------------------|
----------------------------------|
----------------------------------|

------------------------------------------|
-11-10-8-10-11-13-10-11-13-11-11-13-13br\-|
------------------------------------------|
------------------------------------------|
------------------------------------------|
------------------------------------------|

-----------------------------------------15-17-18-|
---------------------------------15-16-18---------|
-------------------------14-15-17-----------------|
-----------------12-13-15-------------------------|
---------12-13-15---------------------------------|
-12-13-15-----------------------------------------|
  .  .  . .  .  .

-17-15----------------18-20-|
------18-16-15-16-18~~------|
----------------------------|
----------------------------|
----------------------------|
----------------------------|

-22-20-18-20-18--18---------------------------|
---------------22--22-20-18--------18---------|
---------------------------20-19-20--20-19-17-|
----------------------------------------------|
----------------------------------------------|
----------------------------------------------|

-------------------------|
---------------------17b-|
---------17-19-20-19-17b-|
-20-19-20----------------|
-------------------------|
-------------------------|

Lyrics:
-INTRO-
-INTRO SOLO-
-VERSE 1-
"I'm selling records.
What is it that you do?
Sitting in your mama's basement with her shih tzu.
Peanut butter on your dick,
Right hand going click,
With your left hand giving you a rim job.
So now you wanna talk about me,
Whose name is on the marquee.
You hate everything that you can't be.
I've heard it all before."
-PRE-CHORUS 1-
"YOU'RE JUST A SELLOUT, TURN-COAT ROCKSTAR,
PUSSY, POSER, POPSTAR."
-CHORUS-
"Because you're nothing but a wannabe.
It's so easy when you're faceless.
Why don't you focus on your misery,
Instead of focusing on me?"
-VERSE 2-
"So number two, that's right.
What is it you're rolling,
Now that your mama's Ford Focus got stolen?
But it don't matter 'cause you've got nowhere to go,
So back to the hating, frantic masturbating.
So now you wanna talk about me.
You know the songs that you download for free.
You hate everything that you can't be.
I've heard it all before."
-PRE-CHORUS 2-
"YOU'RE JUST A SELLOUT, TURN-COAT POPSTAR,
PUSSY, POSER, ROCKSTAR."
-CHORUS-
"Because you're nothing but a wannabe.
It's so easy when you're faceless.
Why don't you focus on your misery,
Instead of focusing on me?"
-PRE-SOLO-
"So number two, that's right.
What is it you're rolling,
Now that your mama's Ford Focus got stolen?
But it don't matter 'cause you've got nowhere to go,
So back to the hating, frantic masturbating.
So now you wanna talk about me.
So now you wanna talk about me."
-SOLO-
-CHORUS-
"Because you're nothing but a wannabe.
It's so easy when you're faceless.
Why don't you focus on your misery,
Instead of focusing on me?
Nothing but a wannabe.
It's so easy when you're faceless.
Why don't you focus on your misery,
Instead of focusing on me?"
-OUTRO-
"I'm selling records.
What is it that you do?
Sitting in your mama's basement.
I'm selling records.
What is it that you do?
I'm selling records."

            
            
Suggest correction
Creating personal tab
Creating personal tab
You can edit any tab online and save it as your Personal.

You can edit, replace or remove any tab part or add personal notes – all changes will be seen only by you.

Personal tabs can be accessed anytime from any device, even offline.
Learn more »
Give kudos to tab author, rate the tab!
1 2 3 4 5
comments
print report bad tab
2 comments total.
0 reply
jordonglasswall 10 Jan 14, 2012 12:58 AM

The song is actually in F# C# G# C# F# A# D#, played live on a 7-string baritone.

0 reply
HoverFan#1 532 Jan 14, 2012 03:36 AM

yeah I know, but this tab is in Drop-Db for those who don't have a 7-string. :)

guest
You may want to rate the tab now too:
select rating
Wanna post a correction for this tab? Suggest correction