Oops, an error
Loading. Please wait.

Warm Safe Place bass

by Staind
448 views 1 this week
no commentswrite comment
1 2 3 4 5
3 more votes to show rating
add to favorites
×
Save as Personal and add changes to this tab that will be seen only by you. Learn more ›
×
You can save this tab as Personal to edit and correct it or add notes. All changes will be seen only by you. Learn more »
launch autoscroll
font size
0
reset
guitar tuner
edit
Autoscroll
slow
fast
+/-
esc
set tempo
stop
Author
Difficulty
Staind - Warm safe place
Album: Break The Cycle

bass tab

by : doky 2007
taquilleros_de_sudamerica_maroyu_el_grupo_tropical_del_momento@hotmail.com

5-stringed bass
G D A E B

   INTRO
G-|-----------------------|-------------------|------------------|
D-|-----------------------|-------------------|------------------|
A-|-6---6---6---66--------|-6---6---6--6------|-6---6---6--6-----|
E-|-------4--------54-----|-------4--------6^-|-------4----------|
B-|-------------------4---|-------------------|---------------4^-|
                                                                              

G-|--------------|---|-------------------------|
D-|--------------|---|-------------------------|
A-|-6---6---6----|---|-------------4-444-6-666-|
E-|-------4------|---|-4-66/9-77-4-------------|
B-|--------------|---|-------------------------|
                   +          *A*                                              

   VERSO 1
G-|------------------|-------------------------------|
D-|------------------|---------4--4h6----------------|
A-|-6---6------------|-----6----------4--4h6---------|
E-|---------0/4------|-0/4-------------------2/4-----|
B-|-------------4----|---------------------------4---|
                                                                              

G-|--------------------------|
D-|--------------------------|
A-|-----6---------------6----|
E-|-2/4-----4h6p4-----4------|
B-|---------------4----------|
                                                                              

   BREAK
G-|-------|-------------------|
D-|-------|-------------------|
A-|-------|---------4444-6666-|
E-|-------|-------------------|
B-|-------|-444-444-----------|
    *A* +                                                                      

   CORO
G-|-----------------|
D-|-----------------|
A-|-----------------|
E-|-2-22222-4-44444-|
B-|-----------------|
                                                                              

   VERSO 2
G-|--------------|----------------|------------------|------------|
D-|--------------|--------8^--3^--|------------------|------------|
A-|-6-----6------|-6---66---------|-6---6------------|-6-----6----|
E-|-----4--------|----------------|---------4--------|-----4------|
B-|-----------6^-|----------------|-----------4---4^-|------------|
                                                                              

   MIDDLE
G-|-----------------------------|
D-|-----------------------------|
A-|-----------------------------|
E-|-----------------------------|
B-|-55555-4-55555-22222-3-22222-|
                                                                              

   VERSO 3
G-|---------------------------------|-----------------------------|
D-|---------------------------------|-----------------------------|
A-|-6---6-----6-------6--6----------|-6---6-----6------------6----|
E-|---------4-----444-------8^--2^--|---------4-----44/6---4------|
B-|---------------------------------|--------------------4--------|
                                                                              

   FIN
G-|-----------------------------|----------------------------------|
D-|-----------------------------|----------------------------------|
A-|-6---6-----6-------------6---|-----6---6-----6-------------6----|
E-|---------4-----444-----4-----|-4^----------4-----444-----4------|
B-|-------------------4---------|-----------------------4----------|

Le mando saludos Alastorezaga, Al Gato y Al Rynner porque en 3ro pues queria hacerle una broma 
Al Rynner echandole con galletas en la cara pero todo salio mal y las galletas le llegaron a la
cara Del Gato todo fue una confusion y El Alastorezaga no paro de reirse.

doky2007                                                                             

            
            
Suggest correction
Creating personal tab
Creating personal tab
You can edit any tab online and save it as your Personal.

You can edit, replace or remove any tab part or add personal notes – all changes will be seen only by you.

Personal tabs can be accessed anytime from any device, even offline.
Learn more »
Give kudos to tab author, rate the tab!
1 2 3 4 5
comments
print report bad tab
guest
You may want to rate the tab now too:
select rating
Wanna post a correction for this tab? Suggest correction