Oops, an error
Loading. Please wait.

Waste tab

version 2
version 2

Whole song

Interactive

by Staind
3,415 views 3 this week
4 commentsread comments
1 2 3 4 5
x 5
add to favorites
×
Save as Personal and add changes to this tab that will be seen only by you. Learn more ›
×
You can save this tab as Personal to edit and correct it or add notes. All changes will be seen only by you. Learn more »
launch autoscroll
font size
0
reset
how to read this tab
guitar tuner
edit
Autoscroll
slow
fast
+/-
esc
set tempo
stop
------------------------------------------------------------
                         Waste - Staind
------------------------------------------------------------

By:Kyle Whetzel

         Intro/Verse(repeat as many times as needed)        
           
B|---------------------------------------------------------|
G|---------------------------------------------------------|
D|-----------------7-----6----------------6----------------|
A|-------4h5h4-----------------4h5h4------------7----------|
D|-----4-------4------4------4---------4-----4-------------|
A|---------------------------------------------------------|

                         Chorus
           P.M.-
B|---------------------------------------------------------|
G|---------------------------------------------------------|
D|---------------------------------------------------------|
A|---7h6-----6-7----7h6-x--9-------------------------------|
D|---7h6-----6-7----7h6-x--9-------------------------------|
A|-------------------------7-------------------------------|

                         Interlude

B|---------------------------------------------------------|
G|---------------------------------------------------------|
D|-----15-----12----------14-------------------------------|
A|-12--------------12---------------15---------------------|
D|-12------12---------12--------12------12--10-10-10-------|
A|-------------------------------------------0--0--0-------|
                     

B|---------------------------------------------------------|
G|---------------------------------------------------------|
D|-----15-----12----------14---14-14-----------------------|
A|-12--------------12-----15---15-15----------17-----------|
D|-12------12---------12-------------------17----17--------|
A|--------------------------------------15-----------------|

           Hardcore Breakdown(After Interlude)

B|---------------------------------------------------------|
G|---------------------0-----0-----------------------------|
D|----3----0----0------2--0--2--0--------------------------|
A|-0----------------0--3--0--3--0--------------------------|
D|-0----0-------------------------------10--10--10--10-----|
A|---------------------------------------0---0---0---0-----|


B|---------------------------------------------------------|
G|---------------------0-----0-----------------------------|
D|----3----0----0------2--0--2--0--------------------------|
A|-0----------------0--3--0--3--0-------5--5--5--5---------|
D|-0----0-------------------------------5--5--5--5---------|
A|--------------------------------------3--3--3--3---------|

            
            
Suggest correction
Creating personal tab
Creating personal tab
You can edit any tab online and save it as your Personal.

You can edit, replace or remove any tab part or add personal notes – all changes will be seen only by you.

Personal tabs can be accessed anytime from any device, even offline.
Learn more »
comments
print report bad tab
4 comments total. Showing first comments.
0 reply
thatwasntmythum 0 Mar 16, 2002 07:00 PM

sorry about the first line it goes
-----------7------6|
--4h5p4------------|
-------4-----4----|

-----------6-------|
---4h5p4------7----|
-4-------4---------|

0 reply
datwasntmythumb 0 Mar 28, 2002 07:00 PM

ignore the last comment i wrote that when the tab looked screwed up.

0 reply
Go #26 10 May 01, 2003 08:00 PM

this song isnt played on a baritone guitar

guest
Wanna post a correction for this tab? Suggest correction