Oops, an error
Loading. Please wait.

Waste tab

version 3
version 3

Whole song

Interactive

by Staind
3,206 views 9 this week
2 commentsread comments
1 2 3 4 5
x 6
add to favorites
×
Save as Personal and add changes to this tab that will be seen only by you. Learn more ›
×
You can save this tab as Personal to edit and correct it or add notes. All changes will be seen only by you. Learn more »
launch autoscroll
font size
0
reset
how to read this tab
guitar tuner
edit
Autoscroll
slow
fast
+/-
esc
set tempo
stop
Author
Staind
Waste
Break the Cycle
I think this is the best tab for this song that I have seen. Its in dropped-D
tuning(1/2 step down). I have the whole song except for the second interlude.

Intro: Clean
Eb---------------------||-----------------------||
Bb---------------------||-----------------------||
Gb-------------2---1---||-----------------------||
Db-------0-------------||--------0-----4---2----||
Ab-----4---4-----------||------4---4------------||
Eb---2-------2---2-----||----2-------2---2------||
(Repeat as needed)


Verses:Clean
Eb---------------------||-----------------------||
Bb---------------------||-----------------------||
Gb-------------2---1---||-----------------------||
Db-------0-------------||--------0-----4---2----||
Ab-----4---4-----------||------4---4------------||
Eb---2-------2---2-----||----2-------2---2------||

Eb---------------------||-------------------------||
Bb---------------------||-------------------------||
Gb------------2---1----||--------------2---4------||
Db------0--------------||--------0----------------||
Ab----4---4------------||------4---4--------------||
Eb--2-------2---2------||----2-------2---2--------||


Chorus:Distortion
Eb----------------------------||
Bb----------------------------||
Gb----------------------------||
Db---7-6-6----7-7-6-----2~----||
Ab---7-6-6----7-7-6-----2~----||
Eb---5-4-4----5-5-4-----0~----||
(Repeat as many times as needed and let the last note ring)


Interlude 1:Clean

Eb---------------------------------||
Bb---------------------------------||
Gb--7-10-7-------------------------||
Db---------7-10-7-10---------------||
Ab---------------------------------||
Eb--------------------8-8-10-8-----||


Well that's all. You can look at another tab for the second interlude.
Hope you enjoy. Any comments or questions: super_alfan1@hotmail.com
Hope I didnt forget anything in the tab, o well.

            
            
Suggest correction
Creating personal tab
Creating personal tab
You can edit any tab online and save it as your Personal.

You can edit, replace or remove any tab part or add personal notes – all changes will be seen only by you.

Personal tabs can be accessed anytime from any device, even offline.
Learn more »
comments
print report bad tab
2 comments total.
0 reply
super_alfan1 30 Jan 03, 2003 07:00 PM

the tuning is just one step down, not dropped-d. I messesd up. Sorry.

0 reply
alreadygone 131 Apr 15, 2004 08:00 PM

wrong.totally wrong,man.

guest
You may want to rate the tab now too:
select rating
Wanna post a correction for this tab? Suggest correction