Oops, an error
Loading. Please wait.

Dare bass

version 1
version 1

Whole song

Interactive

1,533 views 3 this week
1 commentread comment
1 2 3 4 5
3 more votes to show rating
add to favorites
×
Save as Personal and add changes to this tab that will be seen only by you. Learn more ›
×
You can save this tab as Personal to edit and correct it or add notes. All changes will be seen only by you. Learn more »
launch autoscroll
font size
0
reset
guitar tuner
edit
Autoscroll
slow
fast
+/-
esc
set tempo
stop
Author
Difficulty
Hello from "themartian"

If you are reading this, you have reached our almost guarenteed, 100% Perfect Tabs.

We aim to please!

The Song we have chosen to Tab on this page is:

=============================================================================
                           DARE - STAN BUSH
=============================================================================

Tuning: E Standard                            Key:    | = Bar
                                                      - = Quaver or 1/8
                                                    {3} = Triplet
INTRO                                                 h = Hammer On
      {3}                                             / = Slide Up
G|----5---|--------|--------|--------|
D|-----5--|--------|--------|--------|
A|------5-|3---7---|5~------|-------0|
E|3-------|--------|--------|--------|


G|--------|--------|--------|--------|
D|--------|--------|--------|--------|
A|33-----0|33-----0|33-----0|55------|
E|--------|--------|--------|--------|

VERSE 1

G|--------|--------|--------|--------|
D|--------|--------|--------|--------|
A|--------|--------|--------|--------|
E|33333333|33333333|00000000|11111111|       x4

PRE CHORUS

G|--------|--------|--------|--------|
D|--------|--------|--------|--------|
A|1~------|--------|3~------|--------|
E|--------|--------|--------|--------|

G|--------|--------|--------|--------|
D|--------|--------|--------|--------|
A|5~------|--------|--------|--------|
E|--------|--------|00--0---|22222---|

CHORUS

G|----5---|--------|--------|--------|
D|-----5--|--------|--------|--------|
A|------55|33337777|55555555|55555555|
E|3333----|--------|--------|--------|

G|--------|--------|--------|--------|
D|--------|--------|--------|--------|
A|--------|----3377|55555555|55555555|
E|33333333|0000----|--------|--------|

G|----5---|--------|--------|--------|
D|-----5--|--------|--------|--------|
A|------55|33337777|55555555|55555555|
E|3333----|--------|--------|--------|

G|--------|--------|--------|--------|
D|--------|--------|--------|--------|
A|33------|33------|33------|5-------|
E|--------|--------|--------|--------|

VERSE 2

G|--------|--------|--------|--------|
D|--------|--------|--------|--------|
A|--------|--------|--------|--------|
E|33333333|33333333|00000000|11111111|       x4

PRE CHORUS

G|--------|--------|--------|--------|
D|--------|--------|--------|--------|
A|1-1-1-1-|1-1-1-1-|3-3-3-3-|3-3-3-3-|
E|--------|--------|--------|--------|

G|--------|--------|--------|--------|
D|--------|--------|--------|--------|
A|5-5-5-5-|5-5-5-5-|--------|--------|
E|--------|--------|00--0---|22222---|

CHORUS

G|----5---|--------|--------|--------|
D|-----5--|--------|--------|--------|
A|------55|33337777|55555555|55555555|
E|3333----|--------|--------|--------|

G|--------|--------|--------|--------|
D|--------|--------|--------|--------|
A|--------|----3377|55555555|55555555|
E|33333333|0000----|--------|--------|

G|----5---|--------|--------|--------|
D|-----5--|--------|--------|--------|
A|------55|33337777|55555555|55555555|
E|3333----|--------|--------|--------|

G|--------|--------|--------|--------|
D|--------|--------|--------|--------|
A|33------|33------|33------|5-------|
E|--------|--------|--------|--------|


BRIDGE                            {3}
G|--------|--------|--------|---------|
D|--------|--------|--------|---------|
A|--------|--------|--------|/7----5--|
E|0~------|--------|--------|-------53|

                                  {3}
G|--------|--------|--------|---------|
D|--------|--------|--------|---------|
A|--------|--------|--------|/7----5--|
E|0~------|--------|--------|-------53|

G|----------|----------|--------|--------|
D|----------|----------|--------|--------|
A|-------5h7|-------5h7|--------|7-7--5--|
E|0-0-0-0---|0-0-0-0---|0-0-0-0-|------53|

                                          {3}
G|----------|----------|--------|--------|--------|
D|----------|----------|--------|--------|--------|
A|-------5h7|-------5h7|--------|5---5---|--------|
E|0-0-0-0---|0-0-0-0---|0-0-0-0-|--------|0001----|

CHORUS x 4 TO FADE

G|----5---|--------|--------|--------|
D|-----5--|--------|--------|--------|
A|------55|33337777|55555555|55555555|
E|3333----|--------|--------|--------|

G|--------|--------|--------|--------|
D|--------|--------|--------|--------|
A|--------|----3377|55555555|55555555|
E|33333333|0000----|--------|--------|  x4


=============================================================================
                                    END
=============================================================================


And that is it.

We believe that the Tabs above are Perfectly Parallel with the Studio Record avaiable 
if it is not, then we are pretty damn close!)

You will be pleased to know that we take requests for Songs to Tab out especially for you.
If you are one such individual that would like to make a suggestion, then please message 
through Ultimate Guitar or contact us via email (martian_1982@hotmail.co.uk)
Please clearly state in this message/email the "Artist Name" and "Song Name" of your 
and we will try and get back to you as soon as possible.

If you enjoyed our tabs or thought that we did a good job, then please Rate and/or 
(We value your criticism!)

Yours Faithfully,


Tom and Sam
of "themartian" Tabbing Experience

            
            
Suggest correction
Creating personal tab
Creating personal tab
You can edit any tab online and save it as your Personal.

You can edit, replace or remove any tab part or add personal notes – all changes will be seen only by you.

Personal tabs can be accessed anytime from any device, even offline.
Learn more »
Give kudos to tab author, rate the tab!
1 2 3 4 5
comments
print report bad tab
1 comment total.
0 reply
TheManimal 158 Dec 28, 2010 02:46 PM

Excellent tab thanks! I learned it with no problem!

guest
You may want to rate the tab now too:
select rating
Wanna post a correction for this tab? Suggest correction