Oops, an error
Loading. Please wait.

No Boy No Cry Bass Tab

version 1
version 1

Whole song

Interactive

709 views 3 this week
no commentswrite comment
1 2 3 4 5
please rate
add to favorites
launch autoscroll
font size
0
reset
guitar tuner
Autoscroll
slow
fast
+/-
esc
set tempo
stop
Help us to improve Ultimate-Guitar.com Take our survey!
×
Contributor
Difficulty
intermediate
-------------------------------------------------------------------------------
                                Stance Punks - no boy no cry
-------------------------------------------------------------------------------

Tabbed By : SpectralBanshee
e-mail: 

Tuning: Standard


G|----------------------------------------------------------------------|
D|-----2--------2-----2\-----------------------------------4-4-5-5-7-7\-|
A|---2--------2----------4/5-5-5-5-4/5-5-5-5-4/5-5-5-5-5-5--------------|
E|-3--------3-----------------------------------------------------------|

G|-----------------------------------------------------------------------------------|
D|-----------------222222-2-55-44-22-------------------------------------------------|
A|---------55555555------2-----------2-3333333---------------------2233/555555555555-|
E|-33333333-----------------------------------33333333333-55555555-------------------|

G|----------------------------------------------------------------------------------------------|
D|-----------------22222222-2-55-44-22----------------------------------------------------------|
A|---------55555555--------2-----------22222222222-3333333333--------------333335555555---------|
E|-33333333--------------------------------------------------33333330000000------------33333333-|
                                                        
G|-------------------------------------------------------------------------------|
D|-------------------------------------------------------------------------------|
A|-2233/5555555-3/5555555-2233/5555555-3/555555-7777777--7--777\5-23-55-33-22-00-|
E|-----------------------------------------------------78-78---------------------|

G|----------------------------------------------------------------------------------|
D|--------------------------------------------------44-55-77-55-44------------------|
A|-33333312333------5/10\7777777-------22-33-5555555---------------77-55-33-22-00---|
E|------------333333------------5555555---------------------------------------------|

 

G|-----------------------------------------------------|
D|-----------------------------------------------------|
A|---------------------------33333333333-5555555555555-|
E|-333333333333-0000000000000--------------------------|

G|-----------------------------------------------------------|
D|-----------------------------------------------------------|
A|--------------------------3333333-5555555-3-2-0------------|
E|-33333333333-000000000000----------------------33333333333-|

G|--------------------------------------|
D|--------------------------------------|
A|-3/5555555555555555555555555-33-22-00-|
E|--------------------------------------|

G|---------------------------------------------------------------------------------------|
D|---------------------------------------------------------------------------------------|
A|--------------------------------3333333-3333333-2-0----------------23-5555555\33333320-|
E|-3333333-3333333-3333333-3333333--------------------3333333-3333333--------------------|

G|------------------------------------------------|
D|------------------------------------------------|
A|----------------------5-5---------------5555555-|
E|-1/3333-1/3333-1/3333-----1/3333-1/3333---------|


G|----------------------------------------------------------------------------------------------|
D|-----------------22222222-2-55-44-22----------------------------------------------------------|
A|---------55555555--------2-----------22222222222-3333333333--------------333335555555---------|
E|-33333333--------------------------------------------------33333330000000------------33333333-|

G|-------------------------------------------------------------------------------|
D|-------------------------------------------------------------------------------|
A|-2233/5555555-3/5555555-2233/5555555-3/555555-7777777--7--777\5-23-55-33-22-00-|
E|-----------------------------------------------------78-78---------------------|

G|----------------------------------------------------------------------------------|
D|--------------------------------------------------44-55-77-55-44------------------|
A|-33333312333------5/10\7777777-------22-33-5555555---------------77-55-33-22-00---|
E|------------333333------------5555555---------------------------------------------|

G|-----------------------------------------------------------------|
D|-----------------------------------------------------------------|
A|------------------------3333333333333-555555555555555------------|
E|-333333333-0000000000000-----------------------------------------|

G|---------------------------------------------------------------------|
D|---------------------------------------------------------------------|
A|-----------------------------3333333-55555555-----------55-33-22-00--|
E|-3333333333333-0000000000000------------------333333333--------------|

G|-----------------------------------------------------------------|
D|-----------------------------------------------------------------|
A|------------------------3333333333333-555555555555555------------|
E|-333333333-0000000000000-----------------------------------------|

G|-------------------------------------------------------------------------------------|
D|-------------------------------------------------------------------------------------|
A|-----------------------------3333333-55555555------------33333-55555-777777777777----|
E|-3333333333333-0000000000000------------------33333-00000----------------------------|

G|----------------------------------|
D|----------------------------------|
A|-333333-555555-3-2-0--------------|
E|---------------------33--------3--|



| /  slide up
| \  slide down
| h  hammer-on
| p  pull-off
| ~  vibrato
| +  harmonic
| x  Mute note
===============================================================================
Suggest correction new What's this?
You can suggest a correction to this tab. Community and Mods will review your correction and vote to approve or reject it.
comments
We did not receive enough feedback on this tab! Please rate:
print report bad tab
1 2 3 4 5
guest
You may want to rate the tab now too:
select rating
Please do not post tabs as comments. Select "correction" instead!