Oops, an error
Loading. Please wait.

Sleep On It chords

265 views 6 this week
1 commentread comment
1 2 3 4 5
1 last vote to show rating
add to favorites
×
Save as Personal and add changes to this tab that will be seen only by you. Learn more ›
×
You can save this tab as Personal to edit and correct it or add notes. All changes will be seen only by you. Learn more »
launch autoscroll
font size
0
reset
transpose
0
reset
display chords
guitar tuner
edit
Autoscroll
slow
fast
+/-
esc
set tempo
stop
Author
Difficulty
Strumming
There is no strumming pattern for this song yet. and get +5 IQ
Cm# 9th fret of 6th string
Gm# 11th fret of 5th string
A   12th fret of 5th string 

[During the two first lines in each verse]
      Cm#                Gm# 
e|----9--12------------------11------------------|
B|-----------------------12----------------------|
G|-----------------------------------------------|
D|-----------------------------------------------|
A|-----------------------------------------------|
E|-----------------------------------------------|

[Intro]
Cm#    Gm#    Cm#

[Verse]
Cm#                 Gm#
The darkest hour is just before dawn
Cm#                 Gm#
The darkest hour is just before dawn
A
Sleep on it
Gm#
Sleep on it
A             Cm#
Sleep on it

Cm#                 Gm#
Tomorrow you'll have another chance
Cm#                 Gm#
Tomorrow you'll have another chance
A
Sleep on it
Gm#
Sleep on it
A             Cm#
Sleep on it

Cm#                 Gm#
Ah ah ah ah ah ah aaah
        Cm#                  Gm#
A a a a ah ah ah ah ah ah ah aaah
A             Gm#          
     Ah ah ah aah
         A             Cm#
Ah ah ah aah

[Bridge]
      Cm#               Gm#    Cm#               Gm#
e|----11-9-11---9--------------11-9-11---9--------------|
B|----------------------7-9----------------------7-9----|
G|------------------------------------------------------|
D|------------------------------------------------------|
A|------------------------------------------------------|
E|------------------------------------------------------|

      A           Gm#         A                  Cm#
e|----------17----------16----7-9-11---9-7-9---7-9----|
B|----17-19-------17-19-------------------------------|
G|----------------------------------------------------|
D|----------------------------------------------------|
A|----------------------------------------------------|
E|----------------------------------------------------|

[Verse]
Cm#                 Gm#
The darkest hour is just before dawn
Cm#                 Gm#
The darkest hour is just before dawn
A
Sleep on it
Gm#
Sleep on it
A             Cm#
Sleep on it

Cm#                 Gm#
Tomorrow you'll have another chance
Cm#                 Gm#
Tomorrow you'll have another chance
A
Sleep on it
Gm#
Sleep on it
A             Cm#
Sleep on it
Suggest correction
Creating personal tab
Creating personal tab
You can edit any tab online and save it as your Personal.

You can edit, replace or remove any tab part or add personal notes – all changes will be seen only by you.

Personal tabs can be accessed anytime from any device, even offline.
Learn more »
Give kudos to tab author, rate the tab!
1 2 3 4 5
comments
print report bad tab
1 comment total.
0 reply
Nentron 22 Jul 31, 2017 07:08 PM

Am Em F

guest
You may want to rate the tab now too:
select rating
Wanna post a correction for this tab? Suggest correction