Oops, an error
Loading. Please wait.

Agradecimiento Tab

66 views 1 this week
no commentswrite comment
1 2 3 4 5
3 more votes to show rating
add to favorites
launch autoscroll
font size
0
reset
how to read this tab
guitar tuner
Autoscroll
slow
fast
+/-
esc
set tempo
stop
Help us to improve Ultimate-Guitar.com Take our survey!
×
Bueno esta es la transcripción del intro,
la puse en cuanto pude porque no hay ninguna version
del intro en internet y creo que muchos la están nececitando,
esta muy fácil e igual que a ala original.

e|------------------------|--------------------------------|
B|---------10-12-14-12-15-|-12-14-15-14h15-12-12-----14----|
G|--11-13-----------------|-----------------------14-------|
D|------------------------|--------------------------------|
A|------------------------|--------------------------------|
E|------------------------|--------------------------------|

e|--------------------------------------------------------|
B|--10-12-14-12h14-10-10-----12--10-10--13-11-9h11--------|
G|------------------------13------------------------14-11-|
D|--------------------------------------------------------|
A|--------------------------------------------------------|
E|--------------------------------------------------------|
Suggest correction
Give kudos to tab author, rate the tab!
1 2 3 4 5
comments
print report bad tab
guest
You may want to rate the tab now too:
select rating
Wanna post a correction for this tab? Suggest correction