Oops, an error
Loading. Please wait.

Eres Lo Que Yo Necesito Tab

8 views 1 this week
no commentswrite comment
1 2 3 4 5
3 more votes to show rating
add to favorites
launch autoscroll
font size
0
reset
how to read this tab
guitar tuner
×
Best way to learn
"Eres Lo Que Yo Necesito"
Autoscroll
slow
fast
+/-
esc
set tempo
stop
hola está muy fácil esta tablatura alguna duda
escribanme a cobi_a12@


Intro:
1] -5-5-5-5----1-1-1-1--
2] -5-5-5-5----1-1-1-1--  |
3] -6-6-6-6----2-2-2-2--  | 12 veces
4] -7-7-7-7----3-3-3-3--  |
5] -7-7-7-7----3-3-3-3--  |
6] -5-5-5-5----1-1-1-1-- /


Verso:
    Dime porque es que no lo encontré
1] -----------------------------------------------
2] -----1------1------1-------1------1------1--
3] ---2------2------2-------2------2------2----
4] -3------3------3-------3------3------3------

    Tanto tiempo que ya yo perdí y con nada de mostrar
1] -----------------------------------------------
2] -----1------1------1-------1------1------1--
3] ---2------2------2-------2------2------2----
4] -3------3------3-------3------3------3------

     Ayúdame, a buscar lo que necesito
1] -----------------------------------------------
2] -----1------1------1-------1------1------1--
3] ---2------2------2-------2------2------2----
4] -3------3------3-------3------3------3------

    Porque pienso que hay algo más
1] -----------------------------------------------
2] -----1------1------1-------1------1------1--
3] ---2------2------2-------2------2------2----
4] -3------3------3-------3------3------3------

    Es tu amor y libertad
1] -----------------------------------------------
2] -----1------1------1-------1------1------1--
3] ---2------2------2-------2------2------2----
4] -3------3------3-------3------3------3------

PRECORO:

    Trate de vivir y seguir sin ti, falle, lo se
1] -5---5---5-5----5----5-5---5-----5-5---5----
2] -5---5---5-5----5----5-5---5-----5-5---5---
3] -6---6---6-6----6----6-6---6-----6-6---6--
4] -7---7---7-7----7----7-7---7-----7-7---7-
5] -7---7---7-7----7----7-7---7-----7-7---7--
6] -5---5---5-5----5----5-5---5-----5-5---5-


CORO:
        Tú, eres lo que yo necesito
1] -5-5-5-5----1-1-1-1---5-5-5-5----1-1-1-1-
2] -5-5-5-5----1-1-1-1---5-5-5-5----1-1-1-1--  |
3] -6-6-6-6----2-2-2-2---6-6-6-6----2-2-2-2--  |   2 veces
4] -7-7-7-7----3-3-3-3---7-7-7-7----3-3-3-3--  |
5] -7-7-7-7----3-3-3-3---7-7-7-7----3-3-3-3--  |
6] -5-5-5-5----1-1-1-1---5-5-5-5----1-1-1-1--  /

     Tú, has completado con tu amor
1] -5-5-5-5----1-1-1-1---5-5-5-5----1-1-1-1-
2] -5-5-5-5----1-1-1-1---5-5-5-5----1-1-1-1--  |
3] -6-6-6-6----2-2-2-2---6-6-6-6----2-2-2-2--  |   2 veces
4] -7-7-7-7----3-3-3-3---7-7-7-7----3-3-3-3--  |
5] -7-7-7-7----3-3-3-3---7-7-7-7----3-3-3-3--  |
6] -5-5-5-5----1-1-1-1---5-5-5-5----1-1-1-1--  /


    Todo lo que yo soy
1] -5-5-5-5----1-1-1-1---5-5-5-5----1-1-1-1-
2] -5-5-5-5----1-1-1-1---5-5-5-5----1-1-1-1--  |
3] -6-6-6-6----2-2-2-2---6-6-6-6----2-2-2-2--  |   2 veces
4] -7-7-7-7----3-3-3-3---7-7-7-7----3-3-3-3--  |
5] -7-7-7-7----3-3-3-3---7-7-7-7----3-3-3-3--  |
6] -5-5-5-5----1-1-1-1---5-5-5-5----1-1-1-1--  /


VERSO:
    Perdóname, porque al fin yo realicé
1] -----------------------------------------------
2] -----1------1------1-------1------1------1--
3] ---2------2------2-------2------2------2----
4] -3------3------3-------3------3------3------

    Que todo lo que yo busqué no existe en realidad
1] -----------------------------------------------
2] -----1------1------1-------1------1------1--
3] ---2------2------2-------2------2------2----
4] -3------3------3-------3------3------3------

    No se porque, ya no pude yo ver
1] -----------------------------------------------
2] -----1------1------1-------1------1------1--
3] ---2------2------2-------2------2------2----
4] -3------3------3-------3------3------3------

   Que lo que buscaba yo tener, lo tenia que pensar
1] -----------------------------------------------
2] -----1------1------1-------1------1------1--
3] ---2------2------2-------2------2------2----
4] -3------3------3-------3------3------3------


PRECORO:

     Trate de vivir y seguir sin ti, falle, lo se
1] -5---5---5-5----5----5-5---5-----5-5---5----
2] -5---5---5-5----5----5-5---5-----5-5---5---
3] -6---6---6-6----6----6-6---6-----6-6---6--
4] -7---7---7-7----7----7-7---7-----7-7---7-
5] -7---7---7-7----7----7-7---7-----7-7---7--
6] -5---5---5-5----5----5-5---5-----5-5---5-

CORO:

     Tú, eres lo que yo necesito
1] -5-5-5-5----1-1-1-1---5-5-5-5----1-1-1-1-
2] -5-5-5-5----1-1-1-1---5-5-5-5----1-1-1-1--  |
3] -6-6-6-6----2-2-2-2---6-6-6-6----2-2-2-2--  |   2 veces
4] -7-7-7-7----3-3-3-3---7-7-7-7----3-3-3-3--  |
5] -7-7-7-7----3-3-3-3---7-7-7-7----3-3-3-3--  |
6] -5-5-5-5----1-1-1-1---5-5-5-5----1-1-1-1--  /

    Tú, has completado con tu amor
1] -5-5-5-5----1-1-1-1---5-5-5-5----1-1-1-1-
2] -5-5-5-5----1-1-1-1---5-5-5-5----1-1-1-1--  |
3] -6-6-6-6----2-2-2-2---6-6-6-6----2-2-2-2--  |   2 veces
4] -7-7-7-7----3-3-3-3---7-7-7-7----3-3-3-3--  |
5] -7-7-7-7----3-3-3-3---7-7-7-7----3-3-3-3--  |
6] -5-5-5-5----1-1-1-1---5-5-5-5----1-1-1-1--  /

     Todo lo que yo soy
1] -5-5-5-5----1-1-1-1---5-5-5-5----1-1-1-1-
2] -5-5-5-5----1-1-1-1---5-5-5-5----1-1-1-1--  |
3] -6-6-6-6----2-2-2-2---6-6-6-6----2-2-2-2--  |   2 veces
4] -7-7-7-7----3-3-3-3---7-7-7-7----3-3-3-3--  |
5] -7-7-7-7----3-3-3-3---7-7-7-7----3-3-3-3--  |
6] -5-5-5-5----1-1-1-1---5-5-5-5----1-1-1-1--  /


    ¿Que mas necesito yo?
1] -5---5---5-5----5----5-5---5-----5-5---5----
2] -5---5---5-5----5----5-5---5-----5-5---5---
3] -6---6---6-6----6----6-6---6-----6-6---6--
4] -7---7---7-7----7----7-7---7-----7-7---7-
5] -7---7---7-7----7----7-7---7-----7-7---7--
6] -5---5---5-5----5----5-5---5-----5-5---5-

    ¿Que mas que tu puro amor?
1] -5---5---5-5----5----5-5---5-----5-5---5----
2] -5---5---5-5----5----5-5---5-----5-5---5---
3] -6---6---6-6----6----6-6---6-----6-6---6--
4] -7---7---7-7----7----7-7---7-----7-7---7-
5] -7---7---7-7----7----7-7---7-----7-7---7--
6] -5---5---5-5----5----5-5---5-----5-5---5-

   ¿Que mas hay de mas valor?
1] -5---5---5-5----5----5-5---5-----5-5---5----
2] -5---5---5-5----5----5-5---5-----5-5---5---
3] -6---6---6-6----6----6-6---6-----6-6---6--
4] -7---7---7-7----7----7-7---7-----7-7---7-
5] -7---7---7-7----7----7-7---7-----7-7---7--
6] -5---5---5-5----5----5-5---5-----5-5---5-

   ¿Que mas que tu dulce amor?
1] -5---5---5-5----5----5-5---5-----5-5---5----
2] -5---5---5-5----5----5-5---5-----5-5---5---
3] -6---6---6-6----6----6-6---6-----6-6---6--
4] -7---7---7-7----7----7-7---7-----7-7---7-
5] -7---7---7-7----7----7-7---7-----7-7---7--
6] -5---5---5-5----5----5-5---5-----5-5---5-


CORO:
     Tú, eres lo que yo necesito
1] -5-5-5-5----1-1-1-1---5-5-5-5----1-1-1-1-
2] -5-5-5-5----1-1-1-1---5-5-5-5----1-1-1-1--  |
3] -6-6-6-6----2-2-2-2---6-6-6-6----2-2-2-2--  |   2 veces
4] -7-7-7-7----3-3-3-3---7-7-7-7----3-3-3-3--  |
5] -7-7-7-7----3-3-3-3---7-7-7-7----3-3-3-3--  |
6] -5-5-5-5----1-1-1-1---5-5-5-5----1-1-1-1--  /

     Tú, has completado con tu amor
1] -5-5-5-5----1-1-1-1---5-5-5-5----1-1-1-1-
2] -5-5-5-5----1-1-1-1---5-5-5-5----1-1-1-1--  |
3] -6-6-6-6----2-2-2-2---6-6-6-6----2-2-2-2--  |   2 veces
4] -7-7-7-7----3-3-3-3---7-7-7-7----3-3-3-3--  |
5] -7-7-7-7----3-3-3-3---7-7-7-7----3-3-3-3--  |
6] -5-5-5-5----1-1-1-1---5-5-5-5----1-1-1-1--  /

     Todo lo que yo soy
1] -5-5-5-5----1-1-1-1---5-5-5-5----1-1-1-1-
2] -5-5-5-5----1-1-1-1---5-5-5-5----1-1-1-1--  |
3] -6-6-6-6----2-2-2-2---6-6-6-6----2-2-2-2--  |   2 veces
4] -7-7-7-7----3-3-3-3---7-7-7-7----3-3-3-3--  |
5] -7-7-7-7----3-3-3-3---7-7-7-7----3-3-3-3--  |
6] -5-5-5-5----1-1-1-1---5-5-5-5----1-1-1-1--  /
Suggest correction
Give kudos to tab author, rate the tab!
1 2 3 4 5
comments
print report bad tab
guest
You may want to rate the tab now too:
select rating
Wanna post a correction for this tab? Suggest correction