Oops, an error
Loading. Please wait.

Imperial March Bass Tab

99,606 views 255 this week
4 commentsread comments
1 2 3 4 5
excellent!
x 134
add to favorites
launch autoscroll
font size
0
reset
guitar tuner
Autoscroll
slow
fast
+/-
esc
set tempo
stop
Help us to improve Ultimate-Guitar.com Take our survey!
×
Author
-----------------------------------------------------------------------------
                             Imperial March Bass Tab – Star Wars
-----------------------------------------------------------------------------

Tabbed By: Nelson 
e-mail: njk1996@aol.com

Tuning: Standard

G|-------------------------|
D|-5--5--5-5-5-5-5---------|
A|----------------6-6-6----| x4
E|-------------------------|

G|-------------------|
D|-5-5-5---8-5---8-5-| 
A|-------6-----6-----|
E|-------------------|

G|-7-7-7-8-----------|   
D|---------8-4---8-5-|
A|-------------6-----|
E|-------------------|

G|-12--0--0--12--11--10--9-8-9----|
D|--------------------------------|
A|--------------------------------|
E|--------------------------------|

G|---6-5-4-3-2-3-------|
D|-6---------------4---|
A|---------------6-----|
E|---------------------|

G|---------------7---|
D|---4--8--5--8------|
A|-6-----------------|
E|-------------------|

G|-12-0-0-12-11-10-9-8-9----|
D|--------------------------|
A|--------------------------|
E|--------------------------|

G|---6-5-4-3-2-3-------|
D|-6---------------4---|
A|---------------6-----|
E|---------------------|

G|-------------------|
D|---8-5---8-5-------|
A|-6-----6-----------|
E|-------------------|
Suggest correction
What's this?
You can suggest a correction to this tab. Community and Mods will review your correction and vote to approve or reject it.
comments
print report bad tab
4 comments total. Showing first comments. show 2 bad comments
+1 reply
evolution_7 12 wrote on February 11 2016, 02:11 pm

its not shit m9

guest
You may want to rate the tab now too:
select rating
Please do not post tabs as comments. Select "correction" instead!