Oops, an error
Loading. Please wait.

Do You Ever Feel That Way Tab

391 views 1 this week
no commentswrite comment
1 2 3 4 5
please rate
add to favorites
launch autoscroll
font size
0
reset
how to read this tab
guitar tuner
Autoscroll
slow
fast
+/-
esc
set tempo
stop
Help us to improve Ultimate-Guitar.com Take our survey!
×
Author
Difficulty
novice
Intro:
e|----------------------------------|
B|----------------------------------|
G|--10-10-10-10--5-5--3-3-3-3--5-5--|
D|--10-10-10-10--5-5--3-3-3-3--5-5--|
A|---8--8--8--8--3-3--1-1-1-1--3-3--|
E|----------------------------------|


Solo over intro:
e|----------------------------------------------------------------------------|
B|----------------------------------------------------------------------------|
G|------10-----------------------10-------------------------------------------|
D|---10----------------7------10---------------7-7/10--10p7------------7-7/12-|
A|-8----------8-7-8-7-------8----------8-7-8-7-----------------8-7-8-7--------|
E|----------------------------------------------------------------------------|
                                                                              
       1.                       2. Play this instead of 1 at the solo before verse two
------|------------------------|-----------------------------|
------|------------------------|-----------------------------|
------|------------------------|-----------------------------|
-12\7-|----------/12-12--10--7-|-----------/12--10-8-10-8-7--|
------|-8-7-8-7----------------|--8-7-8-7--------------------|
------|------------------------|-----------------------------|
                                                                              
main:  x4

e|----------------------------------|
B|----------------------------------|
G|--10-10-10-10--5-5--3-3-3-3--5-5--|
D|--10-10-10-10--5-5--3-3-3-3--5-5--|
A|---8--8--8--8--3-3--1-1-1-1--3-3--|
E|----------------------------------|


verse: x3

e|--------------------------------------|
B|--------------------------------------|
G|-----------5-5-5-5--3-3-3-3--5-5-5-5--|
D|--3-3-3-3--5-5-5-5--3-3-3-3--5-5-5-5--|
A|--3-3-3-3--3-3-3-3--1-1-1-1--3-3-3-3--|
E|--1-1-1-1-----------------------------|
(--------------palm mute----------------)



chorus:  (distortion)

e|--------------------------------------------------------|
B|--------------------------------------------------------|
G|--------------------------------------------------------|
D|--7-7-7-7--8-8-8-8-8-8-8-8-8--5-5-5-5--3-3-3-3--7-7-7-7-|
A|--7-7-7-7--8-8-8-8-8-8-8-8-8--5-5-5-5--3-3-3-3--7-7-7-7-|
E|--5-5-5-5--6-6-6-6-5-6-5-6-6--3-3-3-3--1-1-1-1--5-5-5-5-|


e|------------------------|
B|------------------------|
G|------------------------|
D|-8-8-8-8--5-5-5-5--5-5--|
A|-8-8-8-8--5-5-5-5--5-5--|
E|-6-6-6-6--3-3-3-3--3-3--|

main

verse

chorus

main



outro:  (distortion)  x4

e|----------------------------|
B|----------------------------|
G|--7-7-7--5-5--3-3-3-3--5-5--|
D|--7-7-7--5-5--3-3-3-3--5-5--|
A|--5-5-5--3-3--1-1-1-1--3-3--|
E|----------------------------|



then end on:

e|-----|
B|-----|
G|-----|
D|--3--|
A|--3--|
E|--1--|
Suggest correction
What's this?
You can suggest a correction to this tab. Community and Mods will review your correction and vote to approve or reject it.
comments
We did not receive enough feedback on this tab! Please rate:
print report bad tab
1 2 3 4 5
guest
You may want to rate the tab now too:
select rating
Please do not post tabs as comments. Select "correction" instead!