Oops, an error
Loading. Please wait.

Nice Guy Bass Tab

359 views 1 this week
no commentswrite comment
1 2 3 4 5
3 more votes to show rating
add to favorites
launch autoscroll
font size
0
reset
guitar tuner
Autoscroll
slow
fast
+/-
esc
set tempo
stop
Help us to improve Ultimate-Guitar.com Take our survey!
×
Difficulty
intermediate
Verse:

g-------------------------------------------------------------------------|
d-----------------2--------------------2----------------------------------|
a-0----0--0-0-2-3-----0----0---0-0-2-3------------------------------------|
e-------------------------------------------------------------------------|


g-------------------------------------------------------------------------|
d-3----3--3-3-2-0----2----2--2-2-0----------------------------------------|
a----------------------------------3-2------------------------------------|
e-------------------------------------------------------------------------|

Trepal
Suggest correction
Give kudos to tab author, rate the tab!
1 2 3 4 5
comments
print report bad tab
guest
You may want to rate the tab now too:
select rating
Wanna post a correction for this tab? Suggest correction