Oops, an error
Loading. Please wait.

One Shot Juanita Tab

208 views 1 this week
no commentswrite comment
1 2 3 4 5
3 more votes to show rating
add to favorites
launch autoscroll
font size
0
reset
how to read this tab
guitar tuner
Autoscroll
slow
fast
+/-
esc
set tempo
stop
Help us to improve Ultimate-Guitar.com Take our survey!
×
Author
verse:
e|-------------------------------------------------------|
B|-------------------------------------------------------|
G|-13-11-9-11-13-9-11-13-13\9-9-13-9-9-11-8-8-11-13-13\9-|
D|-------------------------------------------------------|
A|-------------------------------------------------------|
E|-------------------------------------------------------|

chorus:

e|------------------|
B|------------------|
G|-13-11-9----11-13-|
D|---------11-------|
A|------------------|
E|------------------|

ending:

guitar 1: x31

e|---------------------|
B|-------14^-----------|
G|----11-----11-13-13^-|
D|-11------------------|
A|---------------------|
E|---------------------|

guitar 2:

e|--------------------------------------------------------|
B|-14-14-12-14-17-17-14---14-14-12-14^-19-19-14-17-15-14--|
G|--------------------------------------------------------|
D|--------------------------------------------------------|
A|--------------------------------------------------------|
E|--------------------------------------------------------|

e|---------------------------------------------17-17-17-15-14-15-14-----|
B|-12-14-12-14-12-10-9-10-12-14-17-17-17-19-19-----------------------17-|
G|----------------------------------------------------------------------|
D|----------------------------------------------------------------------|
A|----------------------------------------------------------------------|
E|----------------------------------------------------------------------|

e|-------------------------------------------------------------|
B|-14-17-17-17-17-15-14-17-19-17-19-17-14-12-14-12-14-14-12-10-|
G|-------------------------------------------------------------|
D|-------------------------------------------------------------|
A|-------------------------------------------------------------|
E|-------------------------------------------------------------|

e|--------------17-17-17-17-15-14-17-17-15-14-12-12-14-12-----------------------------|
B|17-17-19-19-19----------------------------------------15-17-15-14-17-17-17-17-15-14-|
G|------------------------------------------------------------------------------------|
D|------------------------------------------------------------------------------------|
A|------------------------------------------------------------------------------------|
E|------------------------------------------------------------------------------------|

e|-------------17----------|
B|-19-19-19-19----17-15-14-|     x3
G|-------------------------|
D|-------------------------|
A|-------------------------|
E|-------------------------|

e|-------------------------------------|
B|-12-14-15-15-15-17-15-14-15-14-12-10-|
G|-------------------------------------|
D|-------------------------------------|
A|-------------------------------------|
E|-------------------------------------|

e|-------------17-------------|
B|-19-19-19-19----17-15-14-10-|     X2
G|----------------------------|
D|----------------------------|
A|----------------------------|
E|----------------------------|

that's it!  i think the solo is pretty close to the real thing...i tried
anyway.
Suggest correction
Give kudos to tab author, rate the tab!
1 2 3 4 5
comments
print report bad tab
guest
You may want to rate the tab now too:
select rating
Wanna post a correction for this tab? Suggest correction