Oops, an error
Loading. Please wait.

Unbelievers Bass Tab

224 views 1 this week
no commentswrite comment
1 2 3 4 5
3 more votes to show rating
add to favorites
launch autoscroll
font size
0
reset
guitar tuner
Autoscroll
slow
fast
+/-
esc
set tempo
stop
Help us to improve Ultimate-Guitar.com Take our survey!
×
Author
Song: Unbelievers
Artist: Starflyer 59
Album: Old
Tabbed by: Carlos Bergen (bergencarlos@gmail.com)


Intro
G|---------------------------------|3x|---------------------------------|
D|---------------------------------|  |---------------------------------|
A|---------------------------------|  |---------------------5-7-7-5-----|
E|-3-3-3-3-5-5-5-5-0-0-0-0-0-0-0-0-|  |-3-3-3-3-5-5-5-5-0-0---------7-5-|

G|---------------------------------|---------------------------------|
D|---------------------------------|---------------------------------|
A|---------------------------------|-----------------7-7-7-7-7-7-7-7-|
E|-3-3-3-3-5-5-5-5-0-0-0-0-0-0-0-0-|-3-3-3-3-5-5-5-5-----------------|

G|---------------------------------|---------------------------------|
D|---------------------------------|---------------------------------|
A|---------------------------------|---------------------5-7-7-5\----|
E|-3-3-3-3-5-5-5-5-0-0-0-0-0-0-0-0-|-3-3-3-3-5-5-5-5-0-0-------------|


G|---------------------------------|---------------------------------|
D|---------------------------------|---------------------------------|
A|---------------------------------|-----------------7-7-7-7-7-7-7-7-|
E|-3-3-3-3-5-5-5-5-0-0-0-0-0-0-0-0-|-3-3-3-3-5-5-5-5-----------------|

G|---------------------------------|---------------------------------|
D|---------------------------------|---------------------------5-7-5-|
A|---------------------------------|---------------------5-7-7-------|
E|-3-3-3-3-5-5-5-5-0-0-0-0-0-0-0-0-|-3-3-3-3-5-5-5-5-0-0-------------|

G|---------------------------------|4x
D|---------------------------------|  
A|---------------------------------|
E|-3-3-3-3-5-5-5-5-0-0-0-0-0-0-0-0-|

Verse
G|---------------------------------|
D|---------------------------------|  
A|---------------------------------|
E|-3-3-3-3-5-5-5-5-0-0-0-0-0-0-0-0-|   

Chorus 
G|---------------------------------|
D|---------------------------------|  
A|---7---------3-------5-----------|
E|-------0-------------------------|
Suggest correction
Give kudos to tab author, rate the tab!
1 2 3 4 5
comments
print report bad tab
guest
You may want to rate the tab now too:
select rating
Wanna post a correction for this tab? Suggest correction