Oops, an error
Loading. Please wait.

Holly tab

328 views 6 this week
1 commentread comment
1 2 3 4 5
2 more votes to show rating
add to favorites
×
Save as Personal and add changes to this tab that will be seen only by you. Learn more ›
×
You can save this tab as Personal to edit and correct it or add notes. All changes will be seen only by you. Learn more »
launch autoscroll
font size
0
reset
how to read this tab
guitar tuner
edit
Autoscroll
slow
fast
+/-
esc
set tempo
stop
Author
Difficulty
About this tab version
Added nearly all the layers of the song. Was this info helpful? Yes No
-------------------------------------------------------------------------------
                             STRFKR - Holly
-------------------------------------------------------------------------------

Tuning:standard

Guitar 1 [Square Wave 330,380,410,490,310,330,310,280 Hz] (Repeats throughout song)

e|----------------------------|
B|--------9-12----------------|
G|-9---11----------8---9-8----|
D|-------------------------11-|
A|----------------------------|
E|----------------------------|

Guitar 2 (Switches around with Guitar 3 throughout song}

e|----------------------------------------------|
B|----------------------------------------------|
G|----------------------------------------------|
D|----------------------------------------------|
A|----------------------------------------------|
E|-8-8--8-8--11-11--11-11-10/7-7--7-7--6-6--6-6-|

Guitar 3 (Switches around with Guitar 2 throughout song)

e|----------------------------------------------|
B|----------------------------------------------|
G|----------------------------------------------|
D|----------------------------------------------|
A|----------------------------------------------|
E|-8-8--8-8--11-11--11-11-10/7-7--7-7--6-6--6-6-|

Guitar 4 (Reapets/Overlaps with Guitar 2/3)

e|----------------------------------------------|
B|----------------------------------------------|
G|-2-2--2-2--1-1--1-1---------------------------|
D|---------------------2-2--2-2--1-1--1-1-------|
A|----------------------------------------------|
E|----------------------------------------------|

Guitar 4

e|-----------------------------------------------------|
B|-----7---7---7---7---7---7-----7---7---7---5---5---5-|
G|-7/8---8---8---8---8---8---7/8---8---6---6---6---6---|
D|-----------------------------------------------------|
A|-----------------------------------------------------|
E|-----------------------------------------------------|

Note: Still figuring out the patterns (will edit again soon)

            
            
Suggest correction
Creating personal tab
Creating personal tab
You can edit any tab online and save it as your Personal.

You can edit, replace or remove any tab part or add personal notes – all changes will be seen only by you.

Personal tabs can be accessed anytime from any device, even offline.
Learn more »
Give kudos to tab author, rate the tab!
1 2 3 4 5
comments
print report bad tab
1 comment total.
0 reply
seanfrasure 89 Sep 07, 2016 04:08 PM, edited on March 3 2017, 02:00 am

[Removed]

guest
You may want to rate the tab now too:
select rating
Wanna post a correction for this tab? Suggest correction