Oops, an error
Loading. Please wait.

Rawnald Gregory Erickson The Second Bass Tab

version 1
version 1

Whole song

Interactive

9,419 views 18 this week
1 commentread comment
1 2 3 4 5
excellent!
x 13
add to favorites
launch autoscroll
font size
0
reset
guitar tuner
Autoscroll
slow
fast
+/-
esc
set tempo
stop
Help us to improve Ultimate-Guitar.com Take our survey!
×
Rawnald Gregory Erickson the Second
by Starfucker

g ---------------------------------------------------------------|
d ---------------------------------------------------------------|
a ------------------------------------------5-55--/0-00--3-33----|
e -3-33--3-33-3-33-3-33--/7-77-7-77--0-00------------------------|

Repeat until the song plays 3 on the e string over and over, then continue with the riff.
The slides vary slightly but the song will sound the same regardless. Just play with it.

/ = slide
Suggest correction
comments
print report bad tab
1 comment total.
+3 reply
SNOWFaKING 10 wrote on May 26 2013, 04:42 pm

(/) Slide Up (\) Slide Down (h) Hammer On (p) Pull Off (b) Bend (r) Release (v) Vibrato

He's playing octaves, so it should be this.

G|--------------------------------------9-99-\7-77---------------
D|--5-55--5-55--5-55--5-55-/9-99--9-99--------------7-77--10-1010
A|--------------------------------------7-77-\5-55---------------
E|--3-33--3-33--3-33--3-33-/7-77--7-77--------------5-55--8-88
Repeat.
At the end, those are 10's not 1-0.

guest
You may want to rate the tab now too:
select rating
Wanna post a correction for this tab? Suggest correction