Oops, an error
Loading. Please wait.

Rawnald Gregory Erickson The Second Tab

version 5
version 5

Whole song

Interactive

34 views 3 this week
no commentswrite comment
1 2 3 4 5
3 more votes to show rating
add to favorites
launch autoscroll
font size
0
reset
how to read this tab
guitar tuner
Autoscroll
slow
fast
+/-
esc
set tempo
stop
Help us to improve Ultimate-Guitar.com Take our survey!
×
Author
About this tab version
This version has the third guitar. Was this info helpful? Yes No
[Intro/Verse/Chorus]
Guitar 1

e|---------------------------------------------------------------------------|
B|---------------------------------------------------------------------------|
G|---------------------------------------------------------------------------|
D|----------------------12-------------------------12------------------------|
A|-14-12-14-12-14-12-14-------14-12-14-12-14-12-14---------------------------|
E|---------------------------------------------------------------------------|

Guitar 2 (You can play it on a bass up 12 frets whatever floats your boat)

e|---------------------------------------------------------------------------|
B|---------------------------------------------------------------------------|
G|---------------------------------------------------------------------------|
D|-------------------------------------------0-00----------------------------|
A|-------------------------2-22--2-22--------------0-00--3-33----------------|
E|-3-33--3-33--3-33--3-33--------------0-00----------------------------------|

Guitar 3 

e|---------------------------------------------------------------------------|
B|---------------------------------------------------------------------------|
G|---------------------------------------------------------------------------|
D|---------------------------------------------------------------------------|
A|-10x16----9x8----10x4----9x4-----------9x4---------------------------------|
E|--------------------------------8x4----------------------------------------|

[Bridge]
(Guitar 1/2 are lower than guitar 3 in bridge)

Guitar 1

e|---------------------------------------------------------------------------|
B|---------------------------------------------------------------------------|
G|---------------------------------------------------------------------------|
D|----------------------12-------------------------12------------------------|
A|-14-12-14-12-14-12-14-------14-12-14-12-14-12-14---------------------------|
E|---------------------------------------------------------------------------|

Guitar 2

e|---------------------------------------------------------------------------|
B|---------------------------------------------------------------------------|
G|---------------------------------------------------------------------------|
D|-------------------------------------------0-00----------------------------|
A|-------------------------2-22--2-22--------------0-00--3-33----------------|
E|-3-33--3-33--3-33--3-33--------------0-00----------------------------------|

Guitar 3 
e|-7-7-7-7-7-7-7-7-7-7-7-7-7--7--7--7--7--7--7-7-7-10-10-10-8--8--8--10-10-10-|
B|-8-8-8-8-8-8-8-8-8-8-8-8-10-10-10-10-10-10-8-8-8-10-10-10-10-10-10-10-10-10-|
G|-7-7-7-7-7-7-7-7-7-7-7-7-8--8--8--8--8--8--9-9-9-11-11-11-9--9--9--11-11-11-|
D|-9-9-9-9-9-9-9-9-9-9-9-9-9--9--9--9--9--9--9-9-9-12-12-12-10-10-10-12-12-12-|
A|-7-7-7-7-7-7-7-7-7-7-7-7-7--7--7--7--7--7--7-7-7-10-10-10-8--8--8--10-10-10-|
E|-7-7-7-7-7-7-7-7-7-7-7-7-7--7--7--7--7--7--7-7-7-10-10-10-8--8--8--10-10-10-|

Guitar 1

e|---------------------------------------------------------------------------|
B|---------------------------------------------------------------------------|
G|---------------------------------------------------------------------------|
D|---------------------------------------------------------------------------|
A|---------------------------------------------------------------------------|
E|---------------------------------------------------------------------------|

Guitar 2

e|---------------------------------------------------------------------------|
B|---------------------------------------------------------------------------|
G|---------------------------------------------------------------------------|  x14
D|---------------------------------------------------------------------------| 
A|---------------------------------------------------------------------------|
E|-3-33--3-33--3-33--3-33----------------------------------------------------|

Guitar 3 

e|---------------------------------------------------------------------------|
B|---------------------------------------------------------------------------|
G|---------------------------------------------------------------------------|  x14
D|---------------------------------------------------------------------------|
A|-10x16---------------------------------------------------------------------|
E|---------------------------------------------------------------------------|

Guitar 2

e|---------------------------------------------------------------------------|
B|---------------------------------------------------------------------------|
G|---------------------------------------------------------------------------|
D|-------------------------------------------0-00----------------------------|
A|-------------------------2-22--2-22--------------0-00--3-33----------------|
E|-3-33--3-33--3-33--3-33--------------0-00----------------------------------|

Guitar 3 

e|---------------------------------------------------------------------------|
B|---------------------------------------------------------------------------|
G|---------------------------------------------------------------------------|
D|---------------------------------------------------------------------------|
A|-10x16----9x8----10x4----9x4-----------9x4---------------------------------|
E|--------------------------------8x4----------------------------------------|

[Outro]
Guitar 1

e|---------------------------------------------------------------------------|
B|---------------------------------------------------------------------------|
G|---------------------------------------------------------------------------|
D|----------------------12-------------------------12------------------------|
A|-14-12-14-12-14-12-14-------14-12-14-12-14-12-14---------------------------|
E|---------------------------------------------------------------------------|

Guitar 2 (You can play it on a bass up 12 frets whatever floats your boat)

e|---------------------------------------------------------------------------|
B|---------------------------------------------------------------------------|
G|---------------------------------------------------------------------------|
D|-------------------------------------------0-00----------------------------|
A|-------------------------2-22--2-22--------------0-00--3-33----------------|
E|-3-33--3-33--3-33--3-33--------------0-00----------------------------------|

Guitar 3 

e|---------------------------------------------------------------------------|
B|---------------------------------------------------------------------------|
G|---------------------------------------------------------------------------|
D|---------------------------------------------------------------------------|
A|-10x16----9x8----10x4----9x4-----------9x4---------------------------------|
E|--------------------------------8x4----------------------------------------|
  

************************************

| x  Dead note

************************************
Suggest correction
Give kudos to tab author, rate the tab!
1 2 3 4 5
comments
print report bad tab
guest
You may want to rate the tab now too:
select rating
Wanna post a correction for this tab? Suggest correction