Oops, an error
Loading. Please wait.

While Im Alive tab

5,724 views 24 this week
2 commentsread comments
1 2 3 4 5
x 6
add to favorites
×
Save as Personal and add changes to this tab that will be seen only by you. Learn more ›
×
You can save this tab as Personal to edit and correct it or add notes. All changes will be seen only by you. Learn more »
launch autoscroll
font size
0
reset
how to read this tab
guitar tuner
edit
Autoscroll
slow
fast
+/-
esc
set tempo
stop
Band: STRFKR
Song: While I'm Alive

Standard tuning

This is my first guitar tab, but sounds just about dead on, and I got a little help from a video.

Pretty simple tab, but hope you enjoy!

Intro/Verse:

e|-------------------|------------------|------------------|----------------|
b|-------------------|------------------|------------------|----------------|
g|-------5-----------|------5-----------|------5-----------|------5---------|
d|-7-5-7---7-5---5h6h|7-5-7---7-5---5h6h|7-5-7---7-5---5h6h|7-5-7---7-5-----|
a|-------------------|------------------|------------------|----------------|
e|-------------------|------------------|------------------|----------------|

*h = hammer on

Alternative Intro/Verse:
This is the lead synth riff in case you want to play something else (I also find it 
easier to sing to this one)

e|---------------------------------------------------------|
b|--------8--------------------------8---------------------|
g|------9--975-55--7/97------------9--975-55544------------|
d|----7-----------7------(x3)----7-------------7--(x1)-----|
a|---------------------------------------------------------|
e|---------------------------------------------------------|

Pre-Chorus/Chorus:

strumming: dud-d-d

e|----13-13-13--12--10------|
b|----13-13-13--12--10------|
g|----14-14-14--12--10------|
d|--------------------------|
a|--------------------------|
e|--------------------------|

Note: Sometimes I'll add a mute and one more quick 10 chord at the end of even repetitions.

Bridge:

e|---------------------------|
b|---------------------------|
g|-----------5---75----------|
d|----5h7-77--77---7-55------|
a|---------------------------|
e|---------------------------|

And then another few repetitions of the verse finish the song off.

            
            
Suggest correction
Creating personal tab
Creating personal tab
You can edit any tab online and save it as your Personal.

You can edit, replace or remove any tab part or add personal notes – all changes will be seen only by you.

Personal tabs can be accessed anytime from any device, even offline.
Learn more »
comments
print report bad tab
2 comments total.
-2 reply
cactusdan 41 Jun 18, 2013 08:18 PM

Alternative intro/verse should read:

e|---------------------------------------------------------|
b|--------8-------------------------8----------------------|
g|------9--975-55--7/97---------=--9--975-55544------------|
d|----7-----------7------(x3)----7-------------7--(x1)-----|
a|---------------------------------------------------------|
e|---------------------------------------------------------|

Sorry about that

0 reply
gtr053 14 Jun 06, 2017 10:46 PM

The intro/verse actually goes as follows:

e|-----------------|
b|-----------------|
g|-----------5-----|
d|-5h6h7-5-7---7-5-|
a|-----------------|
e|-----------------|

It's just that fourth note that needs to be adjusted. Also, the very first time that it's played in the song, the hammer-on on the sixth fret is omitted.

guest
You may want to rate the tab now too:
select rating
Wanna post a correction for this tab? Suggest correction