Oops, an error
Loading. Please wait.

Let It Out tab

14,240 views 6 this week
7 commentsread comments
1 2 3 4 5
x 20
add to favorites
×
Save as Personal and add changes to this tab that will be seen only by you. Learn more ›
×
You can save this tab as Personal to edit and correct it or add notes. All changes will be seen only by you. Learn more »
launch autoscroll
font size
0
reset
how to read this tab
guitar tuner
edit
Autoscroll
slow
fast
+/-
esc
set tempo
stop
ARTIST: Starrfadu
TRACK: Let It Out
ALBUM: A Narrow Road to Silence
http://www.starrfadu.com

Tabbed by Rob Forey

Standard Tuning
Capo on 1
All chords relative to capo

Chords Used
G       (3 2 0 0 3 3)
Am      (x 0 2 2 1 0)
Em      (0 2 2 0 0 0)
D       (x 0 0 2 3 2)
Cadd9   (0 3 2 0 3 3)


G  Am          Em       D
Do you want to lay your head on my
G     Am   Em         D
Shoulder I don’t mind if you cry
G   Am       Em       D
Sometimes we all just need to
G   D  Cadd9
Let it out


G    Am       Em        D
Just let your tears run down my arm
G   Am   Em        D
So I can keep them in a blue jar
G     Am         Em    D
We’ll drink them later so just
G   D  Cadd9
Let it out
G   D  Cadd9
Let it out


G    Am     Em           D
Lets take a walk just to clear our heads
G  Am        Em        D
I don’t mind that your holding my hand
G   Am      Em       D
You say you love me so just
G   D  Cadd9
Let it out
G   D  Cadd9
Let it out


[Solo – relative to Capo – second guitar strums throughout]
|-------------------------------------------------------------------------------------|
|---7s8--8--8--8s7--7--7--------------------------------------------------------------|
|------------------------------7---7--7--7--7s4---4--4--4--4s7--7--7--7--7--7--7--7---|
|-------------------------------------------------------------------------------------|
|-------------------------------------------------------------------------------------|
|-------------------------------------------------------------------------------------|


----------------------------------------------------------------------------|
---7s8--8--8--8s7--7--7-----------------------------------------------------|
------------------------------7---7--7--7—7s4--4-4-4-4--7-7-7-7---7--7--7---|
----------------------------------------------------------------------------|
----------------------------------------------------------------------------|
----------------------------------------------------------------------------|


-------------------------------------------------------------------------------------|
---7s8--8--8--8s7--7--7--------------------------------------------------------------|
------------------------------7---7--7--7--7s4---4--4--4--4s7--7--7--7--7--7--7--7---|
-------------------------------------------------------------------------------------|
-------------------------------------------------------------------------------------|
-------------------------------------------------------------------------------------|


---------------------------------------------------------------------------------------------------------|
---7s8--8--8--8s7--7--7----------------------------------------------------------------------------------|
------------------------------7---7--7--7--7s4--4--4-4-4--4-4--4-4--4-4-4s7--7--7-7-7--7-7--7-7--7-7-7---|
---------------------------------------------------------------------------------------------------------|
---------------------------------------------------------------------------------------------------------|
---------------------------------------------------------------------------------------------------------|

G      Am       Em       D
Your smile is a pleasant change from before
G    Am               Em        D
When you thought that you could take any more
G    Am      Em       D
Sometimes we all just need to
G   D  Cadd9
Let it out
G   D  Cadd9
Let it out
G   D  Cadd9
Let it out

            
            
Suggest correction
Creating personal tab
Creating personal tab
You can edit any tab online and save it as your Personal.

You can edit, replace or remove any tab part or add personal notes – all changes will be seen only by you.

Personal tabs can be accessed anytime from any device, even offline.
Learn more »
comments
print report bad tab
7 comments total. Showing first comments.
0 reply
CrazyYaz 725 Feb 05, 2007 03:27 AM

pretty much perfect. good stuff :]

0 reply
MR ROB 10 Mar 07, 2007 03:16 AM

top tab buddy

0 reply
YoungOne101 10 Apr 11, 2007 08:20 AM

Sounds good, although the version ive got sounds like it may be tuned down?? Any ideas?

guest
Wanna post a correction for this tab? Suggest correction