Oops, an error
Loading. Please wait.

Starry Cat tab

544 views 21 this week
1 commentread comment
1 2 3 4 5
x 3
add to favorites
×
Save as Personal and add changes to this tab that will be seen only by you. Learn more ›
×
You can save this tab as Personal to edit and correct it or add notes. All changes will be seen only by you. Learn more »
launch autoscroll
font size
0
reset
how to read this tab
guitar tuner
edit
Autoscroll
slow
fast
+/-
esc
set tempo
stop
Starry Cat - Starry Cat - Starry Cat

[Intro]
  D                                               D
E|--------------------------0--------2-----------|---------------------------0--------3-------------|
B|-----------3-----------------------------3-----|------------3-----------------------------3-------|
G|--------2--------2--------------2-----------2--|---------2--------2--------------2-----------0----|
D|--0-----------------0--------------------------|---0-----------------0----------------------------|
A|-----------------------------------------------|--------------------------------------------------|
E|-----------------------------------------------|--------------------------------------------------|

  Em                                              A
E|--------------------------2--------0-----------|---------------------------2/3-----2-----3-----2--|
B|-----------0-----------------------------0-----|------------2-------------------------------------|
G|--------0--------0--------------0-----------0--|------------------2-------------------------------|
D|--2-----------------2--------------------------|---------2----------------------------------------|
A|-----------------------------------------------|---0-----------------0----------------------------|
E|-----------------------------------------------|--------------------------------------------------|

[Verse]
D           D
Starry cat, up above
Em               A
Why do you glow, and do you know
D                   D
That when you left, you made a
Em             A
Hole the size, of the moon inside my heart
G6                      Em     D
I hope that you’ll come visit sometime

E|-----------------------------------------------|
B|-----------------------------------------------|
G|--4-----2-----0-----2--------------------------|
D|--------------------------2--------------------|
A|-----------------------------------------------|
E|-----------------------------------------------|
 
Em                  A           D
You know you're the stars in my eyes

(Harmonics are played on the 5th fret (relative to the capo) and then the intro is repeated while a keyboard
is played over it) 

  D                                               D
E|--------------------------0--------2-----------|---------------------------0--------3-------------|
B|-----------3-----------------------------3-----|------------3-----------------------------3-------|
G|--------2--------2--------------2-----------2--|---------2--------2--------------2-----------0----|
D|--0-----------------0--------------------------|---0-----------------0----------------------------|
A|-----------------------------------------------|--------------------------------------------------|
E|-----------------------------------------------|--------------------------------------------------|

  Em                                              A
E|--------------------------2--------0-----------|---------------------------2/3-----2-----3-----2--|
B|-----------0-----------------------------0-----|------------2-------------------------------------|
G|--------0--------0--------------0-----------0--|------------------2-------------------------------|
D|--2-----------------2--------------------------|---------2----------------------------------------|
A|-----------------------------------------------|---0-----------------0----------------------------|
E|-----------------------------------------------|--------------------------------------------------|

************************************

| /  Slide up

************************************
Suggest correction
Creating personal tab
Creating personal tab
You can edit any tab online and save it as your Personal.

You can edit, replace or remove any tab part or add personal notes – all changes will be seen only by you.

Personal tabs can be accessed anytime from any device, even offline.
Learn more »
Give kudos to tab author, rate the tab!
1 2 3 4 5
comments
print report bad tab
1 comment total.
0 reply
nebula0921 10 Apr 27, 2017 07:27 PM

How do you play the G6 chord?

guest
You may want to rate the tab now too:
select rating
Wanna post a correction for this tab? Suggest correction