Oops, an error
Loading. Please wait.

Back To The Earth bass

by Starset
151 views 1 this week
no commentswrite comment
1 2 3 4 5
2 more votes to show rating
add to favorites
×
Save as Personal and add changes to this tab that will be seen only by you. Learn more ›
×
You can save this tab as Personal to edit and correct it or add notes. All changes will be seen only by you. Learn more »
launch autoscroll
font size
0
reset
guitar tuner
edit
Autoscroll
slow
fast
+/-
esc
set tempo
stop
About this tab version
Fairly simple song to play once you learn the tempo. Follow the tab carefully on the first verse to get the timing right. Try playing the F (4th fret on the low string) on the second and fourth repeat during the choruses. Thank you. Was this info helpful? Yes No
[Verse 1]

F#|--------------------------------|
C#|--------------------------------|
G#|--------------------------------|  x4
C#|--2-2-2---2-2-2---2-2-2---2-2-0-|

F#|-----|
C#|-----|
G#|-----|
C#|--2--|

F#|--------------------------------|
C#|--------------------------------|
G#|--------------------------------|  x4
C#|--2-2-2---2-2-2---2-2-2---2-2-0-|

[Chorus]

F#|------------------------------------------------------------------------------------------------|
C#|------------------------------------------------------------------------------------------------|
G#|-------------------------------------3---3---3---0---0---0---0---0---0--------------------------|  x4
C#|-2---2---2---2---2---2---2---2---2---------------------------------------5---5---5---5---5---5--|
                                                                                       (4) (4)
  
 [Pre-Verse]  

F#|--------------------------------|       
C#|--------------------------------|
G#|--------------------------------|  x2   
C#|--2-2-2---2-2-2---2-2-2---2-2-0-|

F#|-----|
C#|-----|
G#|-----|
C#|--2--|

[Verse 2 no bass]

[Chorus]

F#|------------------------------------------------------------------------------------------------|
C#|------------------------------------------------------------------------------------------------|
G#|-------------------------------------3---3---3---0---0---0---0---0---0--------------------------|  x4
C#|-2---2---2---2---2---2---2---2---2---------------------------------------5---5---5---5---5---5--|
                                                                                       (4) (4)
[Post-Chorus]

F#|--------------------------------|       
C#|--------------------------------|
G#|--------------------------------|  x7   
C#|--2-2-2---2-2-2---2-2-2---2-2-0-|

(Last Time)
F#|----------------------------------|       
C#|----------------------------------|
G#|----------------------------------|  
C#|--2-2-2---2-2-2---2-2-2---2-2-2-2-|


(Strings)
F#|--------------------------|
C#|--7-----9-0-7-----9-------|
G#|------7---------7-----10--|
C#|--------------------------|


[Outro]

F#|------------------------|
C#|--5---5---5---5---5---5-|
G#|------------------------|
C#|--5---5---5---5---5---5-|   Repeat until end



            
            
Suggest correction
Creating personal tab
Creating personal tab
You can edit any tab online and save it as your Personal.

You can edit, replace or remove any tab part or add personal notes – all changes will be seen only by you.

Personal tabs can be accessed anytime from any device, even offline.
Learn more »
Give kudos to tab author, rate the tab!
1 2 3 4 5
comments
print report bad tab
guest
You may want to rate the tab now too:
select rating
Wanna post a correction for this tab? Suggest correction