Oops, an error
Loading. Please wait.

Bringing It Down tab

by Starset
400 views 18 this week
no commentswrite comment
1 2 3 4 5
1 last vote to show rating
add to favorites
×
Save as Personal and add changes to this tab that will be seen only by you. Learn more ›
×
You can save this tab as Personal to edit and correct it or add notes. All changes will be seen only by you. Learn more »
launch autoscroll
font size
0
reset
how to read this tab
guitar tuner
edit
Autoscroll
slow
fast
+/-
esc
set tempo
stop
Starset – Bringing it Down
Tab transposed by Ethan Ringdahl on 19/02/17
Tuning – Drop A# / Bb (One step between drop A and drop B)
Please listen to the song for timing of the notes, especially the guitar verse.
Bars containing lyrics have no guitar parts played in them.

[PIANO/SYNTH INTRO] 
(0:00 - 0:12)
C|---------------------------------------------------------------------------------|
G|-11---10---8----11---10---8----11---10---7----10---7----10---7----10---11---10---|
D|----7----7----7----7----7----7----7----7----7----7----7----7----7----7----7----7-| x2
A|---------------------------------------------------------------------------------|
F|---------------------------------------------------------------------------------|
A|---------------------------------------------------------------------------------|

[MAIN DISTORTED GUITAR RIFF] 
(0:12 - 0:24)
C|---------------------------------------------------------------------------------|
G|---------------------------------------------------------------------------------|
D|---------------------------------------------------------------------------------| x2
A|---------------------------------------------------------------------------------|
F|---------------------------------------------------------------------------------|
A|-10-10-0---0-0---8-8-0-----0--0----0--0-4-4-5-7----------------------------------|

[VOCAL FILL] 
(0:24 - 0:36)
C|---------------------------------------------------------------------------------|
G|---------------------------------------------------------------------------------|
D|-I SAW IT IN YOUR EYES...--------------------------------------------------------|
A|---------------------------------------------------------------------------------|
F|-----------------------------------------------I SAW THE CREATURE DEEP INSIDE...-|
A|---------------------------------------------------------------------------------|

[DISTORTED GUITAR - VERSE] 
(0:36 - 0:48)
C|---------------------------------------------------------------------------------|
G|---------------------------------------------------------------------------------|
D|---------------------------------------------------------------------------------| x1
A|---------------------------------------------------------------------------------|
F|---------------------------0--------3------------3-------------------------------|
A|-0-0-0---0--0-----0-000-0--0----0-0---0-0-0-0------0----0-0-0--0--0--0---5-5-5-5-|
     .                ...         . .   . . .             . .

[SYNTH/VOCAL FILL] 
(0:48 - 1:00)
C|---------------------------------------------------------------------------------|
G|---------------------------------------------------------------------------------|
D|-I'M FALLING APART INSIDE YOUR HOLOGRAPHIC HEART...------------------------------|
A|---------------------------------------------------------------------------------|
F|---------------------------------------------------------------------------------|
A|---------------------------------------------------------------------------------|

[DISTORTED GUITAR - CHORUS] 
(1:00 - 1:24)
C|---------------------------------------------------------------------------------|
G|---------------------------------------------------------------------------------|
D|---------------------------------------------------------------------------------|
A|---------------------------------------------------------------------------------|
F|---------------------------------------------------------------------------------|
A|-0-0-0-0-0-0-0-0-0-0-0-0-0-0-0-0-8-8-8-8-8-8-8-8-10-10-10-10-10-10-10-10---------| \
                                                                                      \
                                                                                        x2
                                                                                      /
C|---------------------------------------------------------------------------------| /
G|---------------------------------------------------------------------------------|
D|---------------------------------------------------------------------------------|
A|---------------------------------------------------------------------------------|
F|---------------------------------------------------------------------------------|
A|-0-0-0-0-0-0-0-0-0-0-0-0-0-0-0-0-8-8-8-8-8-8-8-8-10-10-10-10-8-0-10-13-----------|


[MAIN DISTORTED GUITAR RIFF] 
(1:24 - 1:36)
C|---------------------------------------------------------------------------------|
G|---------------------------------------------------------------------------------|
D|---------------------------------------------------------------------------------| x2
A|---------------------------------------------------------------------------------|
F|---------------------------------------------------------------------------------|
A|-10-10-0---0-0---8-8-0-----0--0----0--0-4-4-5-7----------------------------------|


[VOCAL FILL] 
(1:36 - 1:48)
C|---------------------------------------------------------------------------------|
G|---------------------------------------------------------------------------------|
D|-I SAW THE CRIMSON THIEF...------------------------------------------------------|
A|---------------------------------------------------------------------------------|
F|-------------------------------------HANGING ON HEART STRINGS DRIPPING BLEACH...-|
A|---------------------------------------------------------------------------------|

[DISTORTED GUITAR - VERSE] 
(1:48 - 2:00)
C|---------------------------------------------------------------------------------|
G|---------------------------------------------------------------------------------|
D|---------------------------------------------------------------------------------| x1
A|---------------------------------------------------------------------------------|
F|---------------------------0--------3------------3-------------------------------|
A|-0-0-0---0--0-----0-000-0--0----0-0---0-0-0-0------0----0-0-0--0--0--0---5-5-5-5-|
     .                ...         . .   . . .             . .

[SYNTH/VOCAL FILL] 
(2:00 - 2:12)
C|---------------------------------------------------------------------------------|
G|---------------------------------------------------------------------------------|
D|-I'M FALLING APART INSIDE YOUR HOLOGRAPHIC HEART...------------------------------|
A|---------------------------------------------------------------------------------|
F|---------------------------------------------------------------------------------|
A|---------------------------------------------------------------------------------|

[DISTORTED GUITAR - CHORUS] 
(2:12 - 2:36)
C|---------------------------------------------------------------------------------|
G|---------------------------------------------------------------------------------|
D|---------------------------------------------------------------------------------|
A|---------------------------------------------------------------------------------|
F|---------------------------------------------------------------------------------|
A|-0-0-0-0-0-0-0-0-0-0-0-0-0-0-0-0-8-8-8-8-8-8-8-8-10-10-10-10-10-10-10-10---------|  \
                                                                                       \
                                                                                         x2
                                                                                       /
C|---------------------------------------------------------------------------------|  /
G|---------------------------------------------------------------------------------|
D|---------------------------------------------------------------------------------|
A|---------------------------------------------------------------------------------|
F|---------------------------------------------------------------------------------|
A|-0-0-0-0-0-0-0-0-0-0-0-0-0-0-0-0-8-8-8-8-8-8-8-8-10-10-10-10-8-0-10-13-----------|


[MAIN DISTORTED GUITAR RIFF] 
(2:36 - 2:48)
C|---------------------------------------------------------------------------------|
G|---------------------------------------------------------------------------------|
D|---------------------------------------------------------------------------------| x2
A|---------------------------------------------------------------------------------|
F|---------------------------------------------------------------------------------|
A|-10-10-0---0-0---8-8-0-----0--0----0--0-4-4-5-7----------------------------------|

[VOCAL BRIDGE] 
(2:48 - 3:12)
C|---------------------------------------------------------------------------------|
G|---------------------------------------------------------------------------------|
D|-SILLY ME I THOUGHT I HAD IT...--------------------------------------------------|
A|---------------------------------------------------------------------------------|
F|----------------------------------------------------I CAME SO CLOSE THIS TIME...-|
A|---------------------------------------------------------------------------------|

[DISTORTED GUITAR BRIDGE] 
(3:12 - 3:40)
C|---------------------------------------------------------------------------------|
G|---------------------------------------------------------------------------------|
D|---------------------------------------------------------------------------------| x4
A|---------------------------------------------------------------------------------|
F|---------------------------------------------------------------------------------|
A|-7--7-8--8-5--5-8--8-5-2-5-8-7---------------------------------------------------|

[DISTORTED GUITAR BRIDGE] 
(3:40 - 3:52)
C|---------------------------------------------------------------------------------|
G|---------------------------------------------------------------------------------|
D|---------------------------------------------------------------------------------| x2
A|---------------------------------------------------------------------------------|
F|-----3-------------------------------3-------------------------------------------|
A|-1-0---0-0-0-0-0-0-0-0-0-0-0-0-0-1-0---0-0-0-0-0-0-0-0-0-0-0-0-0-4-4-5-7---------|

[DISTORTED GUITAR BRIDGE] 
(3:52 - 3:58)
C|---------------------------------------------------------------------------------|
G|---------------------------------------------------------------------------------|
D|---------------------------------------------------------------------------------| x1
A|---------------------------------------------------------------------------------|
F|---------------------------------------------------------------------------------|
A|-8-8-8-8-8-8-8-8-10-10-10-10-10-10-10-10-8-8-8-8-8-8-8-8-10-10-10-10-10-10-10-10-|

[VOCAL FILL] 
(3:58 - 4:10)
C|---------------------------------------------------------------------------------|
G|---------------------------------------------------------------------------------|
D|-THERE'S SOMETHING INSIDE YOU THAT ISN'T RIGHT...--------------------------------|
A|---------------------------------------------------------------------------------|
F|--------------------------------------------SOMETHING THAT HAUNTS YOUR DREAMS...-|
A|---------------------------------------------------------------------------------|

[DISTORTED GUITAR - CHORUS] 
(4:10 - 4:22)
C|---------------------------------------------------------------------------------|
G|---------------------------------------------------------------------------------|
D|---------------------------------------------------------------------------------|
A|---------------------------------------------------------------------------------|
F|---------------------------------------------------------------------------------|
A|-0-0-0-0-0-0-0-0-0-0-0-0-0-0-0-0-8-8-8-8-8-8-8-8-10-10-10-10-10-10-10-10---------|  \
                                                                                       \
                                                                                         x1
                                                                                       /
C|---------------------------------------------------------------------------------|  /
G|---------------------------------------------------------------------------------|
D|---------------------------------------------------------------------------------|
A|---------------------------------------------------------------------------------|
F|---------------------------------------------------------------------------------|
A|-0-0-0-0-0-0-0-0-0-0-0-0-0-0-0-0-8-8-8-8-8-8-8-8-10-10-10-10-10-10-10-10^--------|

[MAIN DISTORTED GUITAR RIFF] 
(4:22 - 4:46)
C|---------------------------------------------------------------------------------|
G|---------------------------------------------------------------------------------|
D|---------------------------------------------------------------------------------| x4
A|---------------------------------------------------------------------------------|
F|---------------------------------------------------------------------------------|
A|-10-10-0---0-0---8-8-0-----0--0----0--0-4-4-5-7----------------------------------|



************************************

 
| \  Slide down
| x  Dead note
| /  Slide up
 

************************************
Suggest correction
Creating personal tab
Creating personal tab
You can edit any tab online and save it as your Personal.

You can edit, replace or remove any tab part or add personal notes – all changes will be seen only by you.

Personal tabs can be accessed anytime from any device, even offline.
Learn more »
Give kudos to tab author, rate the tab!
1 2 3 4 5
comments
print report bad tab
guest
You may want to rate the tab now too:
select rating
Wanna post a correction for this tab? Suggest correction