Oops, an error
Loading. Please wait.

Halo Bass Tab

version 1
version 1

Whole song

Interactive

115 views 15 this week
no commentswrite comment
1 2 3 4 5
x 5
add to favorites
launch autoscroll
font size
0
reset
guitar tuner
Autoscroll
slow
fast
+/-
esc
set tempo
stop
Help us to improve Ultimate-Guitar.com Take our survey!
×
Author
Difficulty
novice
/// Halo by Starset ///

Tabbed by Izach Prince Paul


[Verse 1]

I can see you running, running
Every night from the same darkness
G|---------------|---------------|
D|---------------|---------------|
A|---------------|--9-6-4-4-4----|
E|--9-12-5-5-5---|---------------|

It's coming, coming
But you are not alone
G|---------------|---------------|
D|---------------|---------------|
A|---------------|--9-6-4-4-4----|
E|--9-12-5-5-5---|---------------|

If you just say the word
I'll be there by your side
G|---------------|---------------|
D|---------------|---------------|
A|---------------|--9-6-4-4-4----|
E|--9-12-5-5-5---|---------------|

You make me more
You make me superhuman
G|---------------|---------------|
D|---------------|---------------|
A|---------------|--9-6-4-4-4----|
E|--9-12-5-5-5---|---------------|

And if you need me to
I will save you
G|-----|-----|
D|-----|-----|
A|--9--|-----|
E|-----|--5--|

[Chorus 1]

Send out the signal and I'll fly low
G|-----------------------------------|-----------------------------------|
D|-----------------------------------|-----------------------------------|
A|--7-7-7-7-7-7-7-7-7-7-7-7-7-7-7-7--|-----------------------------------|
E|-----------------------------------|--5-5-5-5-5-5-5-5-5-5-5-5-5-5-5-5--|

If it means the death of me, I won't let go
G|-----------------------------------|-----------------------------------|
D|-----------------------------------|-----------------------------------|
A|--4-4-4-4-4-4-4-4-4-4-4-4-4-4-4-4--|--7-7-7-0-0-0-7-7-7-0-0-0-7-7-0----|
E|-----------------------------------|-----------------------------------|

And if I'm lost in the world's shadows
G|-----------------------------------|-----------------------------------|
D|-----------------------------------|-----------------------------------|
A|--7-7-7-7-7-7-7-7-7-7-7-7-7-7-7-7--|-----------------------------------|
E|-----------------------------------|--5-5-5-5-5-5-5-5-5-5-5-5-5-5-5-5--|

I'll use the light that comes to me from your halo
G|-----------------------------------|-----------------------------------|
D|-----------------------------------|-----------------------------------|
A|--4-4-4-4-4-4-4-4-4-4-4-4-4-4-4-4--|--7-7-7-0-0-0-7-7-7-0-0-0-7-7-0----|
E|-----------------------------------|-----------------------------------|

[Interlude 1]
G|---------------|---------------|
D|---------------|---------------|
A|---------------|--9-6-4--------|
E|--9-12-5-------|---------------|

[Verse 2]
When your backed against the wall
I could be the one
G|---------------|---------------|
D|---------------|---------------|
A|---------------|--9-6-4-4-4----|
E|--9-12-5-5-5---|---------------|

Who's always there to break your fall
You are not alone
G|---------------|---------------|
D|---------------|---------------|
A|---------------|--9-6-4-4-4----|
E|--9-12-5-5-5---|---------------|

Never run, run away
I will save you
G|---------------|---------------|
D|---------------|---------------|
A|---------------|---------------|
E|--2------------|--5------------|

[Chorus 2]

Send out the signal and I'll fly low
G|-----------------------------------|-----------------------------------|
D|-----------------------------------|-----------------------------------|
A|--7-7-7-7-7-7-7-7-7-7-7-7-7-7-7-7--|-----------------------------------|
E|-----------------------------------|--5-5-5-5-5-5-5-5-5-5-5-5-5-5-5-5--|

If it means the death of me, I won't let go
G|-----------------------------------|-----------------------------------|
D|-----------------------------------|-----------------------------------|
A|--4-4-4-4-4-4-4-4-4-4-4-4-4-4-4-4--|--7-7-7-0-0-0-7-7-7-0-0-0-7-7-0----|
E|-----------------------------------|-----------------------------------|

And if I'm lost in the world's shadows
G|-----------------------------------|-----------------------------------|
D|-----------------------------------|-----------------------------------|
A|--7-7-7-7-7-7-7-7-7-7-7-7-7-7-7-7--|-----------------------------------|
E|-----------------------------------|--5-5-5-5-5-5-5-5-5-5-5-5-5-5-5-5--|

I'll use the light that comes to me from your halo
G|-----------------------------------|-----------------------------------|
D|-----------------------------------|-----------------------------------|
A|--4-4-4-4-4-4-4-4-4-4-4-4-4-4-4-4--|--7-7-7-0-0-0-7-7-7-0-0-0-7-7-0----|
E|-----------------------------------|-----------------------------------|

[Interlude 2]
G|-------------------------------------|
D|-------------------------------------|
A|-------------------------------------| x3
E|--12-11-9-7-9-9-9-9-9-9-9-9-9-9-9-9--|

G|-------------------------------------|
D|-------------------------------------|
A|-------------------------------------| 
E|--5--5--5--5--5-5--5--5--5--5--------|

[Chorus 3]

Send out the signal and I'll fly low
G|-----------------------------------|-----------------------------------|
D|-----------------------------------|-----------------------------------|
A|--7-7-7-7-7-7-7-7-7-7-7-7-7-7-7-7--|-----------------------------------|
E|-----------------------------------|--5-5-5-5-5-5-5-5-5-5-5-5-5-5-5-5--|

If it means the death of me, I won't let go
G|-----------------------------------|-----------------------------------|
D|-----------------------------------|-----------------------------------|
A|--4-4-4-4-4-4-4-4-4-4-4-4-4-4-4-4--|--7-7-7-0-0-0-7-7-7-0-0-0-7-7-0----|
E|-----------------------------------|-----------------------------------|

And if I'm lost in the world's shadows
G|-----------------------------------|-----------------------------------|
D|-----------------------------------|-----------------------------------|
A|--7-7-7-7-7-7-7-7-7-7-7-7-7-7-7-7--|-----------------------------------|
E|-----------------------------------|--5-5-5-5-5-5-5-5-5-5-5-5-5-5-5-5--|

I'll use the light that comes to me from your halo
G|-----------------------------------|-----------------------------------|
D|-----------------------------------|-----------------------------------|
A|--4-4-4-4-4-4-4-4-4-4-4-4-4-4-4-4--|--7-7-7-0-0-0-7-7-7-0-0-0-7-7-0----|
E|-----------------------------------|-----------------------------------|

And if I'm lost in the world's shadows...
G|-----------------------|-----------------|
D|-----------------------|-----------------|
A|--7--------------------|--12-------------| 
E|-----------------------|-----------------|

[Bridge]

I won't let go
G|-----------------------------------|-----------------------------------|
D|-----------------------------------|-----------------------------------|
A|--7-7-7-7-7-7-7-7-7-7-7-7-7-7-7-7--|-----------------------------------|
E|-----------------------------------|--5-5-5-5-5-5-5-5-5-5-5-5-5-5-5-5--|

I won't let go
G|-----------------------------------|-----------------------------------|
D|-----------------------------------|-----------------------------------|
A|--4-4-4-4-4-4-4-4-4-4-4-4-4-4-4-4--|--7-7-7-0-0-0-7-7-7-0-0-0-7-7-0----|
E|-----------------------------------|-----------------------------------|

I won't let go
G|-----------------------------------|-----------------------------------|
D|-----------------------------------|-----------------------------------|
A|--7-7-7-7-7-7-7-7-7-7-7-7-7-7-7-7--|-----------------------------------|
E|-----------------------------------|--5-5-5-5-5-5-5-5-5-5-5-5-5-5-5-5--|

I won't let go
G|-----------------------------------|-----------------------------------|
D|-----------------------------------|-----------------------------------|
A|--4-4-4-4-4-4-4-4-4-4-4-4-4-4-4-4--|--7-7-7-0-0-0-7-7-7-0-0-0-7-7-0----|
E|-----------------------------------|-----------------------------------|

And if I'm lost in the world's shadows
G|-----------------------------------|-----------------------------------|
D|-----------------------------------|-----------------------------------|
A|--7-7-7-7-7-7-7-7-7-7-7-7-7-7-7-7--|-----------------------------------|
E|-----------------------------------|--5-5-5-5-5-5-5-5-5-5-5-5-5-5-5-5--|

I'll use the light that comes to me from your halo
G|-----------------------------------|-----------------------------------|
D|-----------------------------------|-----------------------------------|
A|--4-4-4-4-4-4-4-4-4-4-4-4-4-4-4-4--|--7-7-7-0-0-0-7-7-7-0-0-0-7-7-0----|
E|-----------------------------------|-----------------------------------|

[Outro]

Halo
Your halo
G|-----------------------|
D|-----------------------|
A|--7--------------------| 
E|-----------------------|

Suggest correction
comments
print report bad tab
guest
You may want to rate the tab now too:
select rating
Wanna post a correction for this tab? Suggest correction